 0 
SECTION
 2 
ENTITIES
0
LINE
8
Luoi
10
 604552403.576189 
20
 1521997666.24701 
30
0.0
11
 604433683.151814 
21
 1521993560.91453 
31
0.0
62
 2 
0
TEXT
8
Ten
10
 604552403.576189 
20
 1521997666.24701 
30
0.0
62
 4 
40
 3540.11256637335 
1
KV1     
50
 0 
0
TEXT
8
Ten
10
 604433683.151814 
20
 1521993560.91453 
30
0.0
62
 4 
40
 3540.11256637335 
1
KV2     
50
 0 
0
LINE
8
Luoi
10
 604433683.151814 
20
 1521993560.91453 
30
0.0
11
 604365181.651028 
21
 1521852904.74245 
31
0.0
62
 2 
0
TEXT
8
Ten
10
 604365181.651028 
20
 1521852904.74245 
30
0.0
62
 4 
40
 3540.11256637335 
1
KV3     
50
 0 
0
LINE
8
Luoi
10
 604365181.651028 
20
 1521852904.74245 
30
0.0
11
 604289535.852988 
21
 1521732818.74252 
31
0.0
62
 2 
0
TEXT
8
Ten
10
 604289535.852988 
20
 1521732818.74252 
30
0.0
62
 4 
40
 3540.11256637335 
1
KV4     
50
 0 
0
LINE
8
Luoi
10
 604289535.852988 
20
 1521732818.74252 
30
0.0
11
 604340891.074515 
21
 1521675672.23458 
31
0.0
62
 2 
0
TEXT
8
Ten
10
 604340891.074515 
20
 1521675672.23458 
30
0.0
62
 4 
40
 3540.11256637335 
1
KV5     
50
 0 
0
LINE
8
Luoi
10
 604340891.074515 
20
 1521675672.23458 
30
0.0
11
 604394384.588824 
21
 1521643674.99037 
31
0.0
62
 2 
0
TEXT
8
Ten
10
 604394384.588824 
20
 1521643674.99037 
30
0.0
62
 4 
40
 3540.11256637335 
1
KV6     
50
 0 
0
LINE
8
Luoi
10
 604394384.588824 
20
 1521643674.99037 
30
0.0
11
 604471105.757948 
21
 1521717208.56975 
31
0.0
62
 2 
0
TEXT
8
Ten
10
 604471105.757948 
20
 1521717208.56975 
30
0.0
62
 4 
40
 3540.11256637335 
1
KV7     
50
 0 
0
LINE
8
Luoi
10
 604471105.757948 
20
 1521717208.56975 
30
0.0
11
 604552943.312784 
21
 1521814917.55076 
31
0.0
62
 2 
0
TEXT
8
Ten
10
 604552943.312784 
20
 1521814917.55076 
30
0.0
62
 4 
40
 3540.11256637335 
1
KV8     
50
 0 
0
LINE
8
Luoi
10
 604552943.312784 
20
 1521814917.55076 
30
0.0
11
 604619110 
21
 1521863507 
31
0.0
62
 2 
0
TEXT
8
Ten
10
 604619110 
20
 1521863507 
30
0.0
62
 1 
40
 3540.11256637335 
1
DHQN2.1 
50
 0 
0
LINE
8
Luoi
10
 604619110 
20
 1521863507 
30
0.0
11
 604641348 
21
 1521952697 
31
0.0
62
 1 
0
TEXT
8
Ten
10
 604641348 
20
 1521952697 
30
0.0
62
 1 
40
 3540.11256637335 
1
DHQN2.2 
50
 0 
0
LINE
8
Luoi
10
 604641348 
20
 1521952697 
30
0.0
11
 604552403.576189 
21
 1521997666.24701 
31
0.0
62
 2 
0
ENDSEC
0
EOF
