0
SECTION
2
ENTITIES
0
LINE
8
PnS_CutLayer1
10
 0 
20
 0 
30
 0 
11
 149 
21
 0 
31
 0 
0
LINE
8
PnS_CutLayer1
10
-34.701741495854 
20
 70.237114513256 
30
 0 
11
 62.244768626312 
21
 181.646889291638 
31
 0 
0
LINE
8
PnS_PressLayer
10
-1.737782859258 
20
-21.260567728923 
30
 0 
11
 143.466985463148 
21
-54.675762722166 
31
 0 
0
LINE
8
PnS_PressLayer
10
-8.199261878064 
20
-41.589879530151 
30
 0 
11
 125.813150787219 
21
-106.718009026015 
31
 0 
0
LINE
8
PnS_PressLayer
10
-19.055271823449 
20
-59.952305227421 
30
 0 
11
 96.937830100978 
21
-153.475566002212 
31
 0 
0
LINE
8
PnS_PressLayer
10
-33.752778160687 
20
-75.412413147125 
30
 0 
11
 58.312010408039 
21
-192.566477121857 
31
 0 
0
LINE
8
PnS_PressLayer
10
-51.543050129608 
20
-87.182623540056 
30
 0 
11
 11.903395526812 
21
-221.999345550223 
31
 0 
0
LINE
8
PnS_PressLayer
10
-71.519803116394 
20
-94.663330025876 
30
 0 
11
-39.923834068734 
21
-240.274781292386 
31
 0 
0
LINE
8
PnS_PressLayer
10
-92.665367245193 
20
-97.473445165313 
30
 0 
11
-94.529459002455 
21
-246.461784178541 
31
 0 
0
LINE
8
PnS_PressLayer
10
-113.902530236512 
20
-95.469814085953 
30
 0 
11
-149.131720918333 
21
-240.245171532944 
31
 0 
0
LINE
8
PnS_PressLayer
10
-134.149413516837 
20
-88.754507178972 
30
 0 
11
-200.949032781582 
21
-221.941634432641 
31
 0 
0
LINE
8
PnS_PressLayer
10
-152.374586041898 
20
-77.669620357096 
30
 0 
11
-247.341680452189 
21
-192.483604606693 
31
 0 
0
LINE
8
PnS_PressLayer
10
-167.649608186236 
20
-62.779847762726 
30
 0 
11
-285.94629686912 
21
-153.371753839732 
31
 0 
0
LINE
8
PnS_PressLayer
10
-179.196328971084 
20
-44.843714719654 
30
 0 
11
-314.796258366242 
21
-106.598545688804 
31
 0 
0
LINE
8
PnS_PressLayer
10
-186.426527181744 
20
-24.774936399671 
30
 0 
11
-332.421869805686 
21
-54.546733996018 
31
 0 
0
LINE
8
PnS_PressLayer
10
-188.971876948627 
20
-3.595870698222 
30
 0 
11
-337.925234826755 
21
 0.132021042482 
31
 0 
0
LINE
8
PnS_PressLayer
10
-186.702711264139 
20
 17.614563444397 
30
 0 
11
-331.025997117217 
21
 54.652235625174 
31
 0 
0
LINE
8
PnS_PressLayer
10
-179.734627571063 
20
 37.775849094581 
30
 0 
11
-312.075622522796 
21
 106.236502430534 
31
 0 
0
LINE
8
PnS_PressLayer
10
-168.422598915898 
20
 55.860915783062 
30
 0 
11
-282.039494425546 
21
 152.256979264668 
31
 0 
0
LINE
8
PnS_PressLayer
10
-153.342890660926 
20
 70.948461254971 
30
 0 
11
-242.447734500996 
21
 190.36925845645 
31
 0 
0
LINE
8
PnS_PressLayer
10
-135.263703966657 
20
 82.269885100752 
30
 0 
11
-195.317254177837 
21
 218.631797330793 
31
 0 
0
LINE
8
PnS_PressLayer
10
-115.106041545135 
20
 89.248443341679 
30
 0 
11
-143.049007709794 
21
 235.604825648433 
31
 0 
0
LINE
8
PnS_PressLayer
10
-93.896789288553 
20
 91.528629329432 
30
 0 
11
-88.30568106637 
21
 240.423691399494 
31
 0 
0
LINE
8
PnS_PressLayer
10
-72.716403922043 
20
 88.994284217144 
30
 0 
11
-33.876047501442 
21
 232.842908517554 
31
 0 
0
LINE
8
PnS_PressLayer
10
-52.643871613211 
20
 81.774514405515 
30
 0 
11
 17.46710010572 
21
 213.248662604418 
31
 0 
0
POLYLINE
8
PnS_CutLayer1
66
1
10
 0 
20
 0 
30
 0 
0
VERTEX
8
PnS_CutLayer1
10
 0 
20
 0 
30
 0 
0
VERTEX
8
PnS_CutLayer1
10
-1.737782859258 
20
-21.260567728923 
30
 0 
0
VERTEX
8
PnS_CutLayer1
10
-8.199261878064 
20
-41.589879530151 
30
 0 
0
VERTEX
8
PnS_CutLayer1
10
-19.055271823449 
20
-59.952305227421 
30
 0 
0
VERTEX
8
PnS_CutLayer1
10
-33.752778160687 
20
-75.412413147125 
30
 0 
0
VERTEX
8
PnS_CutLayer1
10
-51.543050129608 
20
-87.182623540056 
30
 0 
0
VERTEX
8
PnS_CutLayer1
10
-71.519803116394 
20
-94.663330025876 
30
 0 
0
VERTEX
8
PnS_CutLayer1
10
-92.665367245193 
20
-97.473445165313 
30
 0 
0
VERTEX
8
PnS_CutLayer1
10
-113.902530236512 
20
-95.469814085953 
30
 0 
0
VERTEX
8
PnS_CutLayer1
10
-134.149413516837 
20
-88.754507178972 
30
 0 
0
VERTEX
8
PnS_CutLayer1
10
-152.374586041898 
20
-77.669620357096 
30
 0 
0
VERTEX
8
PnS_CutLayer1
10
-167.649608186236 
20
-62.779847762726 
30
 0 
0
VERTEX
8
PnS_CutLayer1
10
-179.196328971084 
20
-44.843714719654 
30
 0 
0
VERTEX
8
PnS_CutLayer1
10
-186.426527181744 
20
-24.774936399671 
30
 0 
0
VERTEX
8
PnS_CutLayer1
10
-188.971876948627 
20
-3.595870698222 
30
 0 
0
VERTEX
8
PnS_CutLayer1
10
-186.702711264139 
20
 17.614563444397 
30
 0 
0
VERTEX
8
PnS_CutLayer1
10
-179.734627571063 
20
 37.775849094581 
30
 0 
0
VERTEX
8
PnS_CutLayer1
10
-168.422598915898 
20
 55.860915783062 
30
 0 
0
VERTEX
8
PnS_CutLayer1
10
-153.342890660926 
20
 70.948461254971 
30
 0 
0
VERTEX
8
PnS_CutLayer1
10
-135.263703966657 
20
 82.269885100752 
30
 0 
0
VERTEX
8
PnS_CutLayer1
10
-115.106041545135 
20
 89.248443341679 
30
 0 
0
VERTEX
8
PnS_CutLayer1
10
-93.896789288553 
20
 91.528629329432 
30
 0 
0
VERTEX
8
PnS_CutLayer1
10
-72.716403922043 
20
 88.994284217144 
30
 0 
0
VERTEX
8
PnS_CutLayer1
10
-52.643871613211 
20
 81.774514405515 
30
 0 
0
VERTEX
8
PnS_CutLayer1
10
-34.701741495854 
20
 70.237114513256 
30
 0 
0
SEQEND
8
PnS_CutLayer1
0
POLYLINE
8
PnS_CutLayer1
66
1
10
 0 
20
 0 
30
 0 
0
VERTEX
8
PnS_CutLayer1
10
 149 
20
 0 
30
 0 
0
VERTEX
8
PnS_CutLayer1
10
 143.466985463148 
20
-54.675762722166 
30
 0 
0
VERTEX
8
PnS_CutLayer1
10
 125.813150787219 
20
-106.718009026015 
30
 0 
0
VERTEX
8
PnS_CutLayer1
10
 96.937830100978 
20
-153.475566002212 
30
 0 
0
VERTEX
8
PnS_CutLayer1
10
 58.312010408039 
20
-192.566477121857 
30
 0 
0
VERTEX
8
PnS_CutLayer1
10
 11.903395526812 
20
-221.999345550223 
30
 0 
0
VERTEX
8
PnS_CutLayer1
10
-39.923834068734 
20
-240.274781292386 
30
 0 
0
VERTEX
8
PnS_CutLayer1
10
-94.529459002455 
20
-246.461784178541 
30
 0 
0
VERTEX
8
PnS_CutLayer1
10
-149.131720918333 
20
-240.245171532944 
30
 0 
0
VERTEX
8
PnS_CutLayer1
10
-200.949032781582 
20
-221.941634432641 
30
 0 
0
VERTEX
8
PnS_CutLayer1
10
-247.341680452189 
20
-192.483604606693 
30
 0 
0
VERTEX
8
PnS_CutLayer1
10
-285.94629686912 
20
-153.371753839732 
30
 0 
0
VERTEX
8
PnS_CutLayer1
10
-314.796258366242 
20
-106.598545688804 
30
 0 
0
VERTEX
8
PnS_CutLayer1
10
-332.421869805686 
20
-54.546733996018 
30
 0 
0
VERTEX
8
PnS_CutLayer1
10
-337.925234826755 
20
 0.132021042482 
30
 0 
0
VERTEX
8
PnS_CutLayer1
10
-331.025997117217 
20
 54.652235625174 
30
 0 
0
VERTEX
8
PnS_CutLayer1
10
-312.075622522796 
20
 106.236502430534 
30
 0 
0
VERTEX
8
PnS_CutLayer1
10
-282.039494425546 
20
 152.256979264668 
30
 0 
0
VERTEX
8
PnS_CutLayer1
10
-242.447734500996 
20
 190.36925845645 
30
 0 
0
VERTEX
8
PnS_CutLayer1
10
-195.317254177837 
20
 218.631797330793 
30
 0 
0
VERTEX
8
PnS_CutLayer1
10
-143.049007709794 
20
 235.604825648433 
30
 0 
0
VERTEX
8
PnS_CutLayer1
10
-88.30568106637 
20
 240.423691399494 
30
 0 
0
VERTEX
8
PnS_CutLayer1
10
-33.876047501442 
20
 232.842908517554 
30
 0 
0
VERTEX
8
PnS_CutLayer1
10
 17.46710010572 
20
 213.248662604418 
30
 0 
0
VERTEX
8
PnS_CutLayer1
10
 62.244768626312 
20
 181.646889291638 
30
 0 
0
SEQEND
8
PnS_CutLayer1
0
ENDSEC
0
EOF
