  0
SECTION
  2
HEADER
  9
$ACADVER
  1
AC1018
  9
$ACADMAINTVER
 70
     0
  9
$DWGCODEPAGE
  3
ANSI_1252
  9
$INSBASE
 10
0.0
 20
0.0
 30
0.0
  9
$EXTMIN
 10
0.0
 20
0.0
 30
0.0
  9
$EXTMAX
 10
6000.7998046875
 20
1560
 30
0.0
  9
$LIMMIN
 10
0.0
 20
0.0
  9
$LIMMAX
 10
6000.7998046875
 20
1560
  9
$ORTHOMODE
 70
     0
  9
$REGENMODE
 70
     1
  9
$FILLMODE
 70
     1
  9
$QTEXTMODE
 70
     0
  9
$MIRRTEXT
 70
     0
  9
$LTSCALE
 40
1.0
  9
$ATTMODE
 70
     1
  9
$TEXTSIZE
 40
0.2
  9
$TRACEWID
 40
0.05
  9
$TEXTSTYLE
  7
Standard
  9
$CLAYER
  8
0
  9
$CELTYPE
  6
ByLayer
  9
$CECOLOR
 62
   256
  9
$CELTSCALE
 40
1.0
  9
$DISPSILH
 70
     0
  9
$DIMSCALE
 40
1.0
  9
$DIMASZ
 40
0.18
  9
$DIMEXO
 40
0.0625
  9
$DIMDLI
 40
0.38
  9
$DIMRND
 40
0.0
  9
$DIMDLE
 40
0.0
  9
$DIMEXE
 40
0.18
  9
$DIMTP
 40
0.0
  9
$DIMTM
 40
0.0
  9
$DIMTXT
 40
0.18
  9
$DIMCEN
 40
0.09
  9
$DIMTSZ
 40
0.0
  9
$DIMTOL
 70
     0
  9
$DIMLIM
 70
     0
  9
$DIMTIH
 70
     1
  9
$DIMTOH
 70
     1
  9
$DIMSE1
 70
     0
  9
$DIMSE2
 70
     0
  9
$DIMTAD
 70
     0
  9
$DIMZIN
 70
     0
  9
$DIMBLK
  1

  9
$DIMASO
 70
     1
  9
$DIMSHO
 70
     1
  9
$DIMPOST
  1

  9
$DIMAPOST
  1

  9
$DIMALT
 70
     0
  9
$DIMALTD
 70
     2
  9
$DIMALTF
 40
25.4
  9
$DIMLFAC
 40
1.0
  9
$DIMTOFL
 70
     0
  9
$DIMTVP
 40
0.0
  9
$DIMTIX
 70
     0
  9
$DIMSOXD
 70
     0
  9
$DIMSAH
 70
     0
  9
$DIMBLK1
  1

  9
$DIMBLK2
  1

  9
$DIMSTYLE
  2
Standard
  9
$DIMCLRD
 70
     0
  9
$DIMCLRE
 70
     0
  9
$DIMCLRT
 70
     0
  9
$DIMTFAC
 40
1.0
  9
$DIMGAP
 40
0.09
  9
$DIMJUST
 70
     0
  9
$DIMSD1
 70
     0
  9
$DIMSD2
 70
     0
  9
$DIMTOLJ
 70
     1
  9
$DIMTZIN
 70
     0
  9
$DIMALTZ
 70
     0
  9
$DIMALTTZ
 70
     0
  9
$DIMUPT
 70
     0
  9
$DIMDEC
 70
     4
  9
$DIMTDEC
 70
     4
  9
$DIMALTU
 70
     2
  9
$DIMALTTD
 70
     2
  9
$DIMTXSTY
  7
Standard
  9
$DIMAUNIT
 70
     0
  9
$DIMADEC
 70
     0
  9
$DIMALTRND
 40
0.0
  9
$DIMAZIN
 70
     0
  9
$DIMDSEP
 70
    46
  9
$DIMATFIT
 70
     3
  9
$DIMFRAC
 70
     0
  9
$DIMLDRBLK
  1

  9
$DIMLUNIT
 70
     2
  9
$DIMLWD
 70
    -2
  9
$DIMLWE
 70
    -2
  9
$DIMTMOVE
 70
     0
  9
$LUNITS
 70
     2
  9
$LUPREC
 70
     4
  9
$SKETCHINC
 40
0.1
  9
$FILLETRAD
 40
0.0
  9
$AUNITS
 70
     0
  9
$AUPREC
 70
     0
  9
$MENU
  1
.
  9
$ELEVATION
 40
0.0
  9
$PELEVATION
 40
0.0
  9
$THICKNESS
 40
0.0
  9
$LIMCHECK
 70
     0
  9
$CHAMFERA
 40
0.0
  9
$CHAMFERB
 40
0.0
  9
$CHAMFERC
 40
0.0
  9
$CHAMFERD
 40
0.0
  9
$SKPOLY
 70
     0
  9
$TDCREATE
 40
2452826.989501401
  9
$TDUCREATE
 40
2452826.906168068
  9
$TDUPDATE
 40
2452826.990458252
  9
$TDUUPDATE
 40
2452826.907124919
  9
$TDINDWG
 40
0.0009568519
  9
$TDUSRTIMER
 40
0.0009568519
  9
$USRTIMER
 70
     1
  9
$ANGBASE
 50
0.0
  9
$ANGDIR
 70
     0
  9
$PDMODE
 70
     0
  9
$PDSIZE
 40
0.0
  9
$PLINEWID
 40
0.0
  9
$SPLFRAME
 70
     0
  9
$SPLINETYPE
 70
     6
  9
$SPLINESEGS
 70
     8
  9
$HANDSEED
  5
8D
  9
$SURFTAB1
 70
     6
  9
$SURFTAB2
 70
     6
  9
$SURFTYPE
 70
     6
  9
$SURFU
 70
     6
  9
$SURFV
 70
     6
  9
$UCSBASE
  2

  9
$UCSNAME
  2

  9
$UCSORG
 10
0.0
 20
0.0
 30
0.0
  9
$UCSXDIR
 10
1.0
 20
0.0
 30
0.0
  9
$UCSYDIR
 10
0.0
 20
1.0
 30
0.0
  9
$UCSORTHOREF
  2

  9
$UCSORTHOVIEW
 70
     0
  9
$UCSORGTOP
 10
0.0
 20
0.0
 30
0.0
  9
$UCSORGBOTTOM
 10
0.0
 20
0.0
 30
0.0
  9
$UCSORGLEFT
 10
0.0
 20
0.0
 30
0.0
  9
$UCSORGRIGHT
 10
0.0
 20
0.0
 30
0.0
  9
$UCSORGFRONT
 10
0.0
 20
0.0
 30
0.0
  9
$UCSORGBACK
 10
0.0
 20
0.0
 30
0.0
  9
$PUCSBASE
  2

  9
$PUCSNAME
  2

  9
$PUCSORG
 10
0.0
 20
0.0
 30
0.0
  9
$PUCSXDIR
 10
1.0
 20
0.0
 30
0.0
  9
$PUCSYDIR
 10
0.0
 20
1.0
 30
0.0
  9
$PUCSORTHOREF
  2

  9
$PUCSORTHOVIEW
 70
     0
  9
$PUCSORGTOP
 10
0.0
 20
0.0
 30
0.0
  9
$PUCSORGBOTTOM
 10
0.0
 20
0.0
 30
0.0
  9
$PUCSORGLEFT
 10
0.0
 20
0.0
 30
0.0
  9
$PUCSORGRIGHT
 10
0.0
 20
0.0
 30
0.0
  9
$PUCSORGFRONT
 10
0.0
 20
0.0
 30
0.0
  9
$PUCSORGBACK
 10
0.0
 20
0.0
 30
0.0
  9
$USERI1
 70
     0
  9
$USERI2
 70
     0
  9
$USERI3
 70
     0
  9
$USERI4
 70
     0
  9
$USERI5
 70
     0
  9
$USERR1
 40
0.0
  9
$USERR2
 40
0.0
  9
$USERR3
 40
0.0
  9
$USERR4
 40
0.0
  9
$USERR5
 40
0.0
  9
$WORLDVIEW
 70
     1
  9
$SHADEDGE
 70
     3
  9
$SHADEDIF
 70
    70
  9
$TILEMODE
 70
     1
  9
$MAXACTVP
 70
    64
  9
$PINSBASE
 10
0.0
 20
0.0
 30
0.0
  9
$PLIMCHECK
 70
     0
  9
$PEXTMIN
 10
0.0
 20
0.0
 30
0.0
  9
$PEXTMAX
 10
0.0
 20
0.0
 30
0.0
  9
$PLIMMIN
 10
0.0
 20
0.0
  9
$PLIMMAX
 10
12.0
 20
9.0
  9
$UNITMODE
 70
     0
  9
$VISRETAIN
 70
     1
  9
$PLINEGEN
 70
     0
  9
$PSLTSCALE
 70
     1
  9
$TREEDEPTH
 70
  0
  9
$CMLSTYLE
  2
Standard
  9
$CMLJUST
 70
     0
  9
$CMLSCALE
 40
1.0
  9
$PROXYGRAPHICS
 70
     1
  9
$MEASUREMENT
 70
     0
  9
$CELWEIGHT
370
    -1
  9
$ENDCAPS
280
     0
  9
$JOINSTYLE
280
     0
  9
$LWDISPLAY
290
     0
  9
$INSUNITS
 70
4
  9
$HYPERLINKBASE
  1

  9
$STYLESHEET
  1

  9
$XEDIT
290
     1
  9
$CEPSNTYPE
380
     0
  9
$PSTYLEMODE
290
     1
  9
$FINGERPRINTGUID
  2
{FDEAD576-A652-11D2-9A35-0060089B3A3F}
  9
$VERSIONGUID
  2
{9CC56A36-D61F-4F2D-A663-71841FD11AA3}
  9
$EXTNAMES
290
     1
  9
$PSVPSCALE
 40
0.0
  9
$OLESTARTUP
290
     0
  9
$SORTENTS
280
   127
  9
$INDEXCTL
280
     0
  9
$HIDETEXT
280
     1
  9
$XCLIPFRAME
290
     0
  9
$HALOGAP
280
     0
  9
$OBSCOLOR
 70
   257
  9
$OBSLTYPE
280
     0
  9
$INTERSECTIONDISPLAY
280
     0
  9
$INTERSECTIONCOLOR
 70
   257
  9
$DIMASSOC
280
     2
  9
$PROJECTNAME
  1

  0
ENDSEC
  0
SECTION
  2
CLASSES
  0
CLASS
  1
ACDBDICTIONARYWDFLT
  2
AcDbDictionaryWithDefault
  3
ObjectDBX Classes
 90
        0
 91
        1
280
     0
281
     0
  0
CLASS
  1
DICTIONARYVAR
  2
AcDbDictionaryVar
  3
ObjectDBX Classes
 90
        0
 91
        2
280
     0
281
     0
  0
ENDSEC
  0
SECTION
  2
TABLES
  0
TABLE
  2
VPORT
  5
8
330
0
100
AcDbSymbolTable
 70
     3
  0
VPORT
  5
8C
330
8
100
AcDbSymbolTableRecord
100
AcDbViewportTableRecord
  2
*Active
 70
     0
 10
0.0
 20
0.0
 11
6000.7998046875
 21
6000.7998046875
 12
3000.39990234375
 22
3000.39990234375
 13
0.0
 23
0.0
 14
0.5
 24
0.5
 15
0.5
 25
0.5
 16
0.0
 26
0.0
 36
1.0
 17
0.0
 27
0.0
 37
0.0
 40
1560
 41
1.572
 42
50.0
 43
0.0
 44
0.0
 50
0.0
 51
0.0
 71
     0
 72
  1000
 73
     1
 74
     3
 75
     0
 76
     0
 77
     0
 78
     0
281
     0
 65
     1
110
0.0
120
0.0
130
0.0
111
1.0
121
0.0
131
0.0
112
0.0
122
1.0
132
0.0
 79
     0
146
0.0
  0
ENDTAB
  0
TABLE
  2
LTYPE
  5
5
330
0
100
AcDbSymbolTable
 70
     1
  0
LTYPE
  5
14
330
5
100
AcDbSymbolTableRecord
100
AcDbLinetypeTableRecord
  2
ByBlock
 70
     0
  3

 72
    65
 73
     0
 40
0.0
  0
LTYPE
  5
15
330
5
100
AcDbSymbolTableRecord
100
AcDbLinetypeTableRecord
  2
ByLayer
 70
     0
  3

 72
    65
 73
     0
 40
0.0
  0
LTYPE
  5
16
330
5
100
AcDbSymbolTableRecord
100
AcDbLinetypeTableRecord
  2
Continuous
 70
     0
  3
Solid line
 72
    65
 73
     0
 40
0.0
  0
ENDTAB
  0
TABLE
  2
LAYER
  5
2
330
0
100
AcDbSymbolTable
 70
     1
0
LAYER
5
00BF
100
AcDbSymbolTableRecord
100
AcDbLayerTableRecord
2
0
70
0
62
0
6
CONTINUOUS
290
1
370
-3
390
00C0
0
LAYER
5
00C1
100
AcDbSymbolTableRecord
100
AcDbLayerTableRecord
2
Layer1
70
0
62
2
6
CONTINUOUS
290
1
370
-3
390
00C2
0
LAYER
5
00C3
100
AcDbSymbolTableRecord
100
AcDbLayerTableRecord
2
Layer2
70
0
62
3
6
CONTINUOUS
290
1
370
-3
390
00C4
0
LAYER
5
00C5
100
AcDbSymbolTableRecord
100
AcDbLayerTableRecord
2
Layer3
70
0
62
4
6
CONTINUOUS
290
1
370
-3
390
00C6
0
LAYER
5
00C7
100
AcDbSymbolTableRecord
100
AcDbLayerTableRecord
2
Layer4
70
0
62
4
6
CONTINUOUS
290
1
370
-3
390
00C8
0
LAYER
5
00C9
100
AcDbSymbolTableRecord
100
AcDbLayerTableRecord
2
Layer5
70
0
62
7
6
CONTINUOUS
290
1
370
-3
390
00CA
  0
ENDTAB
  0
TABLE
  2
STYLE
  5
3
330
0
100
AcDbSymbolTable
 70
     1
  0
STYLE
  5
11
330
3
100
AcDbSymbolTableRecord
100
AcDbTextStyleTableRecord
  2
Standard
 70
     0
 40
0.0
 41
1.0
 50
0.0
 71
     0
 42
0.2
  3
txt
  4

  0
ENDTAB
  0
TABLE
  2
VIEW
  5
6
330
0
100
AcDbSymbolTable
 70
     0
  0
ENDTAB
  0
TABLE
  2
UCS
  5
7
330
0
100
AcDbSymbolTable
 70
     0
  0
ENDTAB
  0
TABLE
  2
APPID
  5
9
330
0
100
AcDbSymbolTable
 70
     1
  0
APPID
  5
12
330
9
100
AcDbSymbolTableRecord
100
AcDbRegAppTableRecord
  2
ACAD
 70
     0
  0
ENDTAB
  0
TABLE
  2
DIMSTYLE
  5
A
330
0
100
AcDbSymbolTable
 70
     1
100
AcDbDimStyleTable
 71
     0
  0
DIMSTYLE
105
27
330
A
100
AcDbSymbolTableRecord
100
AcDbDimStyleTableRecord
  2
Standard
 70
     0
340
11
  0
ENDTAB
  0
TABLE
  2
BLOCK_RECORD
  5
1
330
0
100
AcDbSymbolTable
 70
     1
  0
BLOCK_RECORD
  5
1F
330
1
100
AcDbSymbolTableRecord
100
AcDbBlockTableRecord
  2
*Model_Space
340
22
  0
BLOCK_RECORD
  5
58
330
1
100
AcDbSymbolTableRecord
100
AcDbBlockTableRecord
  2
*Paper_Space
340
59
  0
BLOCK_RECORD
  5
5D
330
1
100
AcDbSymbolTableRecord
100
AcDbBlockTableRecord
  2
*Paper_Space0
340
5E
  0
ENDTAB
  0
ENDSEC
  0
SECTION
  2
BLOCKS
  0
BLOCK
  5
20
330
1F
100
AcDbEntity
  8
0
100
AcDbBlockBegin
  2
*Model_Space
 70
     0
 10
0.0
 20
0.0
 30
0.0
  3
*Model_Space
  1

  0
ENDBLK
  5
21
330
1F
100
AcDbEntity
  8
0
100
AcDbBlockEnd
  0
BLOCK
  5
5A
330
58
100
AcDbEntity
 67
     1
  8
0
100
AcDbBlockBegin
  2
*Paper_Space
 70
     0
 10
0.0
 20
0.0
 30
0.0
  3
*Paper_Space
  1

  0
ENDBLK
  5
5B
330
58
100
AcDbEntity
 67
     1
  8
0
100
AcDbBlockEnd
  0
BLOCK
  5
5F
330
5D
100
AcDbEntity
  8
0
100
AcDbBlockBegin
  2
*Paper_Space0
 70
     0
 10
0.0
 20
0.0
 30
0.0
  3
*Paper_Space0
  1

  0
ENDBLK
  5
60
330
5D
100
AcDbEntity
  8
0
100
AcDbBlockEnd
  0
ENDSEC
  0
SECTION
  2
ENTITIES
0
LWPOLYLINE
5
00CB
100
AcDbEntity
8
Layer1
100
AcDbPolyline
90
4
70
1
43
0.0
10
1.20000004768372
20
1559.80004882813
10
501.200012207031
20
1559.80004882813
10
501.200012207031
20
759.799987792969
10
1.20000004768372
20
759.799987792969
0
MTEXT
5
00CC
100
AcDbEntity
8
Layer1
100
AcDbMText
10
251
20
1558
30
0
40
10
41
500
71
1
72
5
1
500
0
MTEXT
5
00CD
100
AcDbEntity
8
Layer1
100
AcDbMText
10
2
20
1159
30
0
40
10
41
500
71
1
72
5
1
800
0
MTEXT
5
00CE
100
AcDbEntity
8
Layer1
100
AcDbMText
10
481
20
779
30
0
40
10
41
500
71
1
72
5
1

0
LWPOLYLINE
5
00CF
100
AcDbEntity
8
Layer1
100
AcDbPolyline
90
4
70
1
43
0.0
10
501.600006103516
20
1559.80004882813
10
1069.59997558594
20
1559.80004882813
10
1069.59997558594
20
969.799987792969
10
501.600006103516
20
969.799987792969
0
MTEXT
5
00D0
100
AcDbEntity
8
Layer1
100
AcDbMText
10
785
20
1558
30
0
40
10
41
500
71
1
72
5
1
568
0
MTEXT
5
00D1
100
AcDbEntity
8
Layer1
100
AcDbMText
10
502
20
1264
30
0
40
10
41
500
71
1
72
5
1
590
0
MTEXT
5
00D2
100
AcDbEntity
8
Layer1
100
AcDbMText
10
1049
20
989
30
0
40
10
41
500
71
1
72
5
1

0
LWPOLYLINE
5
00D3
100
AcDbEntity
8
Layer1
100
AcDbPolyline
90
4
70
1
43
0.0
10
501.600006103516
20
969.400024414062
10
1069.59997558594
20
969.400024414062
10
1069.59997558594
20
379.399993896484
10
501.600006103516
20
379.399993896484
0
MTEXT
5
00D4
100
AcDbEntity
8
Layer1
100
AcDbMText
10
785
20
968
30
0
40
10
41
500
71
1
72
5
1
568
0
MTEXT
5
00D5
100
AcDbEntity
8
Layer1
100
AcDbMText
10
502
20
674
30
0
40
10
41
500
71
1
72
5
1
590
0
MTEXT
5
00D6
100
AcDbEntity
8
Layer1
100
AcDbMText
10
1049
20
399
30
0
40
10
41
500
71
1
72
5
1

0
LWPOLYLINE
5
00D7
100
AcDbEntity
8
Layer1
100
AcDbPolyline
90
4
70
1
43
0.0
10
1070
20
1559.80004882813
10
1638
20
1559.80004882813
10
1638
20
969.799987792969
10
1070
20
969.799987792969
0
MTEXT
5
00D8
100
AcDbEntity
8
Layer1
100
AcDbMText
10
1354
20
1558
30
0
40
10
41
500
71
1
72
5
1
568
0
MTEXT
5
00D9
100
AcDbEntity
8
Layer1
100
AcDbMText
10
1071
20
1264
30
0
40
10
41
500
71
1
72
5
1
590
0
MTEXT
5
00DA
100
AcDbEntity
8
Layer1
100
AcDbMText
10
1618
20
989
30
0
40
10
41
500
71
1
72
5
1

0
LWPOLYLINE
5
00DB
100
AcDbEntity
8
Layer1
100
AcDbPolyline
90
4
70
1
43
0.0
10
1070
20
969.400024414062
10
1638
20
969.400024414062
10
1638
20
379.399993896484
10
1070
20
379.399993896484
0
MTEXT
5
00DC
100
AcDbEntity
8
Layer1
100
AcDbMText
10
1354
20
968
30
0
40
10
41
500
71
1
72
5
1
568
0
MTEXT
5
00DD
100
AcDbEntity
8
Layer1
100
AcDbMText
10
1071
20
674
30
0
40
10
41
500
71
1
72
5
1
590
0
MTEXT
5
00DE
100
AcDbEntity
8
Layer1
100
AcDbMText
10
1618
20
399
30
0
40
10
41
500
71
1
72
5
1

0
LWPOLYLINE
5
00DF
100
AcDbEntity
8
Layer1
100
AcDbPolyline
90
4
70
1
43
0.0
10
1638.40002441406
20
1559.80004882813
10
2206.39990234375
20
1559.80004882813
10
2206.39990234375
20
969.799987792969
10
1638.40002441406
20
969.799987792969
0
MTEXT
5
00E0
100
AcDbEntity
8
Layer1
100
AcDbMText
10
1922
20
1558
30
0
40
10
41
500
71
1
72
5
1
568
0
MTEXT
5
00E1
100
AcDbEntity
8
Layer1
100
AcDbMText
10
1639
20
1264
30
0
40
10
41
500
71
1
72
5
1
590
0
MTEXT
5
00E2
100
AcDbEntity
8
Layer1
100
AcDbMText
10
2186
20
989
30
0
40
10
41
500
71
1
72
5
1

0
LWPOLYLINE
5
00E3
100
AcDbEntity
8
Layer1
100
AcDbPolyline
90
4
70
1
43
0.0
10
1638.40002441406
20
969.400024414062
10
2206.39990234375
20
969.400024414062
10
2206.39990234375
20
379.399993896484
10
1638.40002441406
20
379.399993896484
0
MTEXT
5
00E4
100
AcDbEntity
8
Layer1
100
AcDbMText
10
1922
20
968
30
0
40
10
41
500
71
1
72
5
1
568
0
MTEXT
5
00E5
100
AcDbEntity
8
Layer1
100
AcDbMText
10
1639
20
674
30
0
40
10
41
500
71
1
72
5
1
590
0
MTEXT
5
00E6
100
AcDbEntity
8
Layer1
100
AcDbMText
10
2186
20
399
30
0
40
10
41
500
71
1
72
5
1

0
LWPOLYLINE
5
00E7
100
AcDbEntity
8
Layer2
100
AcDbPolyline
90
4
70
1
43
0.0
10
2206.80004882813
20
1559.80004882813
10
6000.7998046875
20
1559.80004882813
10
6000.7998046875
20
60.2000007629395
10
2206.80004882813
20
60.2000007629395
0
MTEXT
5
00E8
100
AcDbEntity
8
Layer3
100
AcDbMText
10
4103
20
1558
30
0
40
10
41
500
71
1
72
5
1
3794.4
0
MTEXT
5
00E9
100
AcDbEntity
8
Layer3
100
AcDbMText
10
2207
20
810
30
0
40
10
41
500
71
1
72
5
1
1500
0
LWPOLYLINE
5
00EA
100
AcDbEntity
8
Layer2
100
AcDbPolyline
90
4
70
1
43
0.0
10
1.20000004768372
20
759.400024414062
10
501.200012207031
20
759.400024414062
10
501.200012207031
20
60.2000007629395
10
1.20000004768372
20
60.2000007629395
0
MTEXT
5
00EB
100
AcDbEntity
8
Layer3
100
AcDbMText
10
251
20
758
30
0
40
10
41
500
71
1
72
5
1
500
0
MTEXT
5
00EC
100
AcDbEntity
8
Layer3
100
AcDbMText
10
2
20
409
30
0
40
10
41
500
71
1
72
5
1
699.6
0
LWPOLYLINE
5
00ED
100
AcDbEntity
8
Layer2
100
AcDbPolyline
90
4
70
1
43
0.0
10
501.600006103516
20
379
10
2206.39990234375
20
379
10
2206.39990234375
20
60.2000007629395
10
501.600006103516
20
60.2000007629395
0
MTEXT
5
00EE
100
AcDbEntity
8
Layer3
100
AcDbMText
10
1353
20
378
30
0
40
10
41
500
71
1
72
5
1
1704.8
0
MTEXT
5
00EF
100
AcDbEntity
8
Layer3
100
AcDbMText
10
502
20
219
30
0
40
10
41
500
71
1
72
5
1
319.2
0
MTEXT
5
00F0
100
AcDbEntity
8
Layer4
100
AcDbMText
10
1
20
1590
30
0
40
10
41
500
71
1
72
5
1
 6000x1500=9000000 mm² PI%=26.82 (x1)
  0
ENDSEC
  0
SECTION
  2
OBJECTS
  0
DICTIONARY
  5
C
330
0
100
AcDbDictionary
281
     1
  3
ACAD_COLOR
350
73
  3
ACAD_GROUP
350
D
  3
ACAD_LAYOUT
350
1A
  3
ACAD_MATERIAL
350
72
  3
ACAD_MLINESTYLE
350
17
  3
ACAD_PLOTSETTINGS
350
19
  3
ACAD_PLOTSTYLENAME
350
E
  3
AcDbVariableDictionary
350
66
  0
DICTIONARY
  5
73
102
{ACAD_REACTORS
330
C
102
}
330
C
100
AcDbDictionary
281
     1
  0
DICTIONARY
  5
D
102
{ACAD_REACTORS
330
C
102
}
330
C
100
AcDbDictionary
281
     1
  0
DICTIONARY
  5
1A
102
{ACAD_REACTORS
330
C
102
}
330
C
100
AcDbDictionary
281
     1
  3
Layout1
350
59
  3
Layout2
350
5E
  3
Model
350
22
  0
DICTIONARY
  5
72
102
{ACAD_REACTORS
330
C
102
}
330
C
100
AcDbDictionary
281
     1
  0
DICTIONARY
  5
17
102
{ACAD_REACTORS
330
C
102
}
330
C
100
AcDbDictionary
281
     1
  3
Standard
350
18
  0
DICTIONARY
  5
19
102
{ACAD_REACTORS
330
C
102
}
330
C
100
AcDbDictionary
281
     1
  0
ACDBDICTIONARYWDFLT
  5
E
102
{ACAD_REACTORS
330
C
102
}
330
C
100
AcDbDictionary
281
     1
  3
Normal
350
F
100
AcDbDictionaryWithDefault
340
F
  0
DICTIONARY
  5
66
102
{ACAD_REACTORS
330
C
102
}
330
C
100
AcDbDictionary
281
     1
  3
DIMASSOC
350
67
  3
HIDETEXT
350
6B
  0
LAYOUT
  5
59
102
{ACAD_REACTORS
330
1A
102
}
330
1A
100
AcDbPlotSettings
  1

  2
None
  4

  6

 40
0.0
 41
0.0
 42
0.0
 43
0.0
 44
0.0
 45
0.0
 46
0.0
 47
0.0
 48
0.0
 49
0.0
140
0.0
141
0.0
142
1.0
143
1.0
 70
   688
 72
     0
 73
     0
 74
     5
  7

 75
    16
147
1.0
 76
     0
 77
     2
 78
   300
148
0.0
149
0.0
100
AcDbLayout
  1
Layout1
 70
     1
 71
     1
 10
0.0
 20
0.0
 11
12.0
 21
9.0
 12
0.0
 22
0.0
 32
0.0
 14
0.0
 24
0.0
 34
0.0
 15
0.0
 25
0.0
 35
0.0
146
0.0
 13
0.0
 23
0.0
 33
0.0
 16
1.0
 26
0.0
 36
0.0
 17
0.0
 27
1.0
 37
0.0
 76
     0
330
58
  0
LAYOUT
  5
5E
102
{ACAD_REACTORS
330
1A
102
}
330
1A
100
AcDbPlotSettings
  1

  2
None
  4

  6

 40
0.0
 41
0.0
 42
0.0
 43
0.0
 44
0.0
 45
0.0
 46
0.0
 47
0.0
 48
0.0
 49
0.0
140
0.0
141
0.0
142
1.0
143
1.0
 70
   688
 72
     0
 73
     0
 74
     5
  7

 75
    16
147
1.0
 76
     0
 77
     2
 78
   300
148
0.0
149
0.0
100
AcDbLayout
  1
Layout2
 70
     1
 71
     2
 10
0.0
 20
0.0
 11
12.0
 21
9.0
 12
0.0
 22
0.0
 32
0.0
 14
0.0
 24
0.0
 34
0.0
 15
0.0
 25
0.0
 35
0.0
146
0.0
 13
0.0
 23
0.0
 33
0.0
 16
1.0
 26
0.0
 36
0.0
 17
0.0
 27
1.0
 37
0.0
 76
     0
330
5D
  0
LAYOUT
  5
22
102
{ACAD_REACTORS
330
1A
102
}
330
1A
100
AcDbPlotSettings
  1

  2
none_device
  4
ANSI_A_(8.50_x_11.00_Inches)
  6

 40
6.349999904632568
 41
19.04999923706055
 42
6.350006103515625
 43
19.04998779296875
 44
215.8999938964844
 45
279.3999938964844
 46
0.0
 47
0.0
 48
0.0
 49
0.0
140
0.0
141
0.0
142
1.0
143
2.584895464708373
 70
 11952
 72
     0
 73
     1
 74
     0
  7

 75
     0
147
0.3868628397755418
 76
     0
 77
     2
 78
   300
148
0.0
149
0.0
100
AcDbLayout
  1
Model
 70
     1
 71
     0
 10
0.0
 20
0.0
 11
12.0
 21
9.0
 12
0.0
 22
0.0
 32
0.0
 14
0.0
 24
0.0
 34
0.0
 15
0.0
 25
0.0
 35
0.0
146
0.0
 13
0.0
 23
0.0
 33
0.0
 16
1.0
 26
0.0
 36
0.0
 17
0.0
 27
1.0
 37
0.0
 76
     0
330
1F
  0
MLINESTYLE
  5
18
102
{ACAD_REACTORS
330
17
102
}
330
17
100
AcDbMlineStyle
  2
STANDARD
 70
     0
  3

 62
   256
 51
90.0
 52
90.0
 71
     2
 49
0.5
 62
   256
  6
BYLAYER
 49
-0.5
 62
   256
  6
BYLAYER
  0
ACDBPLACEHOLDER
  5
F
102
{ACAD_REACTORS
330
E
102
}
330
E
  0
DICTIONARYVAR
  5
67
102
{ACAD_REACTORS
330
66
102
}
330
66
100
DictionaryVariables
280
     0
  1
2
  0
DICTIONARYVAR
  5
6B
102
{ACAD_REACTORS
330
66
102
}
330
66
100
DictionaryVariables
280
     0
  1
1
  0
ENDSEC
  0
EOF
