  0
SECTION
  2
HEADER
  9
$ACADVER
  1
AC1009
  9
$INSBASE
 10
0
 20
0
 30
0
  9
$EXTMIN
 10
0
 20
0
  9
$EXTMAX
 10
420
 20
297
  9
$LIMMIN
 10
0
 20
0
  9
$LIMMAX
 10
420
 20
297
  9
$LTSCALE
 40
1
  0
ENDSEC
  0
SECTION
  2
TABLES
  0
TABLE
  2
LTYPE
 70
     9
  0
LTYPE
  2
CONTINUOUS
 70
    64
  3
Ä└É³
 72
    65
 73
     0
 40
0.0
  0
LTYPE
  2
DASHED1
 70
    64
  3
--  --  --  --  --  --  --  --  
 72
    65
 73
     2
 40
2.5
 49
1.25
 49
-1.25
  0
LTYPE
  2
DASHED2
 70
    64
  3
----    ----    ----    ----    
 72
    65
 73
     2
 40
5.0
 49
2.5
 49
-2.5
  0
LTYPE
  2
DASHED3
 70
    64
  3
------  ------  ------  ------  
 72
    65
 73
     2
 40
5.0
 49
3.75
 49
-1.25
  0
LTYPE
  2
CENTER1
 70
    64
  3
----- - ----- - ----- - ----- - 
 72
    65
 73
     4
 40
10.0
 49
6.25
 49
-1.25
 49
1.25
 49
-1.25
  0
LTYPE
  2
CENTER2
 70
    64
  3
----------  --  ----------  --  
 72
    65
 73
     4
 40
20.0
 49
12.5
 49
-2.5
 49
2.5
 49
-2.5
  0
LTYPE
  2
PHANTOM1
 70
    64
  3
--- - - --- - - --- - - --- - - 
 72
    65
 73
     6
 40
10.0
 49
3.25
 49
-1.25
 49
1.25
 49
-1.25
 49
1.25
 49
-1.25
  0
LTYPE
  2
PHANTOM2
 70
    64
  3
--------  -  -  --------  -  -  
 72
    65
 73
     6
 40
20.0
 49
10.0
 49
-2.5
 49
1.25
 49
-2.5
 49
1.25
 49
-2.5
  0
LTYPE
  2
DOT
 70
    64
  3
-   -   -   -   -   -   -   -   
 72
    65
 73
     2
 40
2.5
 49
0.625
 49
-1.875
  0
LTYPE
  2
DUMMY
 70
    64
  3
â_â~ü[
 72
    65
 73
     0
 40
0.0
  0
LTYPE
  2
RAND1
 70
    64
  3
âëâôâ_âÇÉ³1
 72
    65
 73
     4
 40
10.0
 49
1.0
 49
-2.0
 49
3.0
 49
-4.0
  0
LTYPE
  2
RAND2
 70
    64
  3
âëâôâ_âÇÉ³2
 72
    65
 73
     4
 40
14.0
 49
2.0
 49
-3.0
 49
4.0
 49
-5.0
  0
LTYPE
  2
RAND3
 70
    64
  3
âëâôâ_âÇÉ³3
 72
    65
 73
     4
 40
18.0
 49
3.0
 49
-4.0
 49
5.0
 49
-6.0
  0
LTYPE
  2
RAND4
 70
    64
  3
âëâôâ_âÇÉ³4
 72
    65
 73
     4
 40
22.0
 49
4.0
 49
-5.0
 49
6.0
 49
-7.0
  0
LTYPE
  2
RAND5
 70
    64
  3
âëâôâ_âÇÉ³5
 72
    65
 73
     4
 40
26.0
 49
5.0
 49
-6.0
 49
7.0
 49
-8.0
  0
LTYPE
  2
LONG1
 70
    64
  3
----------  --  ----------  --  
 72
    65
 73
     4
 40
40.0
 49
32.5
 49
-2.5
 49
2.5
 49
-2.5
  0
LTYPE
  2
LONG2
 70
    64
  3
--------  -  -  --------  -  -  
 72
    65
 73
     6
 40
40.0
 49
30.0
 49
-2.5
 49
1.25
 49
-2.5
 49
1.25
 49
-2.5
  0
LTYPE
  2
LONG3
 70
    64
  3
+++++++++++++++..+++++++++++++++
 72
    65
 73
     2
 40
40.0
 49
37.5
 49
-2.5
  0
LTYPE
  2
LONG4
 70
    64
  3
+++++++++++++++..+++++++++++++++
 72
    65
 73
     2
 40
80.0
 49
75.0
 49
-5.0
  0
LTYPE
  2
LONG5
 70
    64
  3
----------  --  ----------  --  
 72
    65
 73
     4
 40
60.0
 49
37.5
 49
-7.5
 49
7.5
 49
-7.5
  0
LTYPE
  2
dashed
 70
   64
  3
-------   -------------   ------
 72
   65
 73
    2
 40
7.5
 49
6
 49
-1.5
  0
LTYPE
  2
dashed_spaced
 70
   64
  3
----        --------        ----
 72
   65
 73
    2
 40
12
 49
6
 49
-6
  0
LTYPE
  2
long_dashed_dotted
 70
   64
  3
------------- --- --------------
 72
   65
 73
    4
 40
15.25
 49
12
 49
-1.5
 49
0.25
 49
-1.5
  0
LTYPE
  2
long_dashed_double-dotted
 70
   64
  3
----------- --- --- ------------
 72
   65
 73
    6
 40
17
 49
12
 49
-1.5
 49
0.25
 49
-1.5
 49
0.25
 49
-1.5
  0
LTYPE
  2
long_dashed_triplicate-dotted
 70
   64
  3
--------- --- --- --- ----------
 72
   65
 73
    8
 40
18.75
 49
12
 49
-1.5
 49
0.25
 49
-1.5
 49
0.25
 49
-1.5
 49
0.25
 49
-1.5
  0
LTYPE
  2
dotted
 70
   64
  3
   -       -       -       -    
 72
   65
 73
    2
 40
1.75
 49
0.25
 49
-1.5
  0
LTYPE
  2
chain
 70
   64
  3
-------------- -- --------------
 72
   65
 73
    4
 40
18.5
 49
12
 49
-1.5
 49
3.5
 49
-1.5
  0
LTYPE
  2
chain_double_dash
 70
   64
  3
------------ -- -- -------------
 72
   65
 73
    6
 40
23.5
 49
12
 49
-1.5
 49
3.5
 49
-1.5
 49
3.5
 49
-1.5
  0
LTYPE
  2
dashed_dotted
 70
   64
  3
-----------     -     ----------
 72
   65
 73
    4
 40
9.25
 49
6
 49
-1.5
 49
0.25
 49
-1.5
  0
LTYPE
  2
double-dashed_dotted
 70
   64
  3
------   -----------   -   -----
 72
   65
 73
    6
 40
16.75
 49
6
 49
-1.5
 49
6
 49
-1.5
 49
0.25
 49
-1.5
  0
LTYPE
  2
dashed_double-dotted
 70
   64
  3
---------    -    -    ---------
 72
   65
 73
    6
 40
11
 49
6
 49
-1.5
 49
0.25
 49
-1.5
 49
0.25
 49
-1.5
  0
LTYPE
  2
double-dashed_double-dotted
 70
   64
  3
-----   ---------   -   -   ----
 72
   65
 73
    8
 40
18.5
 49
6
 49
-1.5
 49
6
 49
-1.5
 49
0.25
 49
-1.5
 49
0.25
 49
-1.5
  0
LTYPE
  2
dashed_triplicate-dotted
 70
   64
  3
-------    -    -    -    ------
 72
   65
 73
    8
 40
12.75
 49
6
 49
-1.5
 49
0.25
 49
-1.5
 49
0.25
 49
-1.5
 49
0.25
 49
-1.5
  0
LTYPE
  2
double-dashed_triplicate-dotted
 70
   64
  3
-----  ---------  -  -  -  -----
 72
   65
 73
   10
 40
20.25
 49
6
 49
-1.5
 49
6
 49
-1.5
 49
0.25
 49
-1.5
 49
0.25
 49
-1.5
 49
0.25
 49
-1.5
  0
LTYPE
  2
undefined
 70
   64
  3
--------------------------------
 72
   65
 73
    0
 40
0
  0
ENDTAB
  0
TABLE
  2
STYLE
  5
3
100
AcDbSymbolTable
 70
     1
  0
STYLE
  5
10
100
AcDbSymbolTableRecord
100
AcDbTextStyleTableRecord
  2
STANDARD
 70
     0
 40
0.0
 41
1.0
 50
0.0
 71
     0
 42
0.2
  3
txt
  4
bigfont.shx
  0
STYLE
  5
26
100
AcDbSymbolTableRecord
100
AcDbTextStyleTableRecord
  2
TATEGAKI
 70
    68
 40
0.0
 41
1.0
 50
0.0
 71
     0
 42
1.0
  3
txt
  4
bigfont.shx
  0
ENDTAB
  0
TABLE
  2
LAYER
 70
    6
  0
LAYER
  2
_0-0____ÿg_
 70
   64
 62
    7
  6
CONTINUOUS
  0
LAYER
  2
_0-7__òÔÅòÉ³
 70
   64
 62
    7
  6
CONTINUOUS
  0
LAYER
  2
_0-8__Éí__û@
 70
   64
 62
    7
  6
CONTINUOUS
  0
LAYER
  2
_0-a__ì\æóæ╠
 70
   64
 62
    7
  6
CONTINUOUS
  0
LAYER
  2
_0-d__òÂ__ÄÜ
 70
   64
 62
    7
  6
CONTINUOUS
  0
LAYER
  2
ADD_LINE
 70
   64
 62
    7
  6
CONTINUOUS
  0
ENDTAB
  0
ENDSEC
  0
SECTION
  2
BLOCKS
  0
ENDSEC
  0
SECTION
  2
ENTITIES
  0
LINE
  8
ADD_LINE
  6
DOT
 62
    4
 10
104.9999977023445
 20
297.49806949806947
 11
315.00000229765544
 21
297.49806949806947
  0
LINE
  8
ADD_LINE
  6
DOT
 62
    4
 10
315.00000229765544
 20
297.49806949806947
 11
315.00000229765544
 21
0.4980694980694977
  0
LINE
  8
ADD_LINE
  6
DOT
 62
    4
 10
104.9999977023445
 20
0.4980694980694977
 11
315.00000229765544
 21
0.4980694980694977
  0
LINE
  8
ADD_LINE
  6
DOT
 62
    4
 10
104.9999977023445
 20
297.49806949806947
 11
104.9999977023445
 21
0.4980694980694977
  0
LINE
  8
_0-a__ì\æóæ╠
  6
CONTINUOUS
 62
    3
 10
165.50000094262788
 20
22.498064313616069
 11
165.50000094262788
 21
25.498068378698875
  0
LINE
  8
_0-a__ì\æóæ╠
  6
CONTINUOUS
 62
    3
 10
192.9999944620611
 20
26.998061662475124
 11
167.00001172393445
 21
26.998061662475124
  0
LINE
  8
_0-a__ì\æóæ╠
  6
CONTINUOUS
 62
    3
 10
192.9999944620611
 20
20.998071029839835
 11
167.00001172393445
 21
20.998071029839835
  0
LINE
  8
_0-0____ÿg_
  6
CONTINUOUS
 62
    7
 10
165.00000901387926
 20
10.49806555081517
 11
255.00000848365104
 21
10.49806555081517
  0
LINE
  8
_0-a__ì\æóæ╠
  6
CONTINUOUS
 62
    3
 10
194.50000524336767
 20
22.498064313616069
 11
194.50000524336767
 21
25.498068378698875
  0
ARC
  8
_0-a__ì\æóæ╠
  6
CONTINUOUS
 62
    3
 10
167.00001172393445
 20
25.498068378698875
 40
1.4999999820495664
 50
90
 51
180
  0
ARC
  8
_0-a__ì\æóæ╠
  6
CONTINUOUS
 62
    3
 10
167.00001172393445
 20
22.498064313616069
 40
1.4999999820495664
 50
180
 51
270
  0
ARC
  8
_0-a__ì\æóæ╠
  6
CONTINUOUS
 62
    3
 10
192.9999944620611
 20
25.498068378698875
 40
1.4999999820495664
 50
0
 51
90
  0
ARC
  8
_0-a__ì\æóæ╠
  6
CONTINUOUS
 62
    3
 10
192.9999944620611
 20
22.498064313616069
 40
1.4999999820495664
 50
270
 51
0
  0
TEXT
  8
_0-d__òÂ__ÄÜ
 62
    7
 10
173.50000309299779
 20
27.998063017502716
 40
4
 41
1
 50
0
  1
òiöÈüE
  0
TEXT
  8
_0-d__òÂ__ÄÜ
 62
    7
 10
219.00001033944972
 20
10.99806622832898
 40
4
 41
0.75
 50
0
  1
érétéréRéOéSü@âwâAâëâCâô
  0
TEXT
  8
_0-d__òÂ__ÄÜ
 62
    7
 10
168.20098363758004
 20
11.10537986390176
 40
4.5
 41
0.8444444444444445
 50
0
  1
ûxì×ê°é½ÄÞ
  0
TEXT
  8
_0-d__òÂ__ÄÜ
 62
    3
 10
170.80000309299777
 20
21.998066346157486
 40
4
 41
1.25
 50
0
  1
SD-260
  0
ARC
  8
_0-8__Éí__û@
  6
CONTINUOUS
 62
    3
 10
175.8728981690098
 20
186.36677014822479
 40
1
 50
270
 51
0
  0
ARC
  8
_0-8__Éí__û@
  6
CONTINUOUS
 62
    3
 10
196.8728981690098
 20
256.36677014822482
 40
1
 50
0
 51
90
  0
LINE
  8
_0-8__Éí__û@
  6
CONTINUOUS
 62
    3
 10
140.8728981690098
 20
257.36677014822482
 11
196.8728981690098
 21
257.36677014822482
  0
ARC
  8
_0-8__Éí__û@
  6
CONTINUOUS
 62
    3
 10
140.8728981690098
 20
256.36677014822482
 40
1
 50
89.999999999999986
 51
180
  0
LINE
  8
_0-8__Éí__û@
  6
CONTINUOUS
 62
    3
 10
139.8728981690098
 20
174.36677014822479
 11
139.8728981690098
 21
256.36677014822482
  0
ARC
  8
_0-8__Éí__û@
  6
CONTINUOUS
 62
    3
 10
140.8728981690098
 20
174.36677014822479
 40
1
 50
180
 51
270
  0
LINE
  8
_0-8__Éí__û@
  6
CONTINUOUS
 62
    3
 10
197.8728981690098
 20
174.36677014822479
 11
197.8728981690098
 21
256.36677014822482
  0
LINE
  8
_0-8__Éí__û@
  6
CONTINUOUS
 62
    3
 10
196.8728981690098
 20
173.36677014822479
 11
140.8728981690098
 21
173.36677014822479
  0
ARC
  8
_0-8__Éí__û@
  6
CONTINUOUS
 62
    3
 10
196.8728981690098
 20
174.36677014822479
 40
1
 50
270
 51
0
  0
ARC
  8
_0-8__Éí__û@
  6
CONTINUOUS
 62
    3
 10
175.8728981690098
 20
244.36677014822482
 40
1
 50
0
 51
90
  0
LINE
  8
_0-8__Éí__û@
  6
CONTINUOUS
 62
    3
 10
152.8728981690098
 20
245.36677014822482
 11
175.8728981690098
 21
245.36677014822482
  0
ARC
  8
_0-8__Éí__û@
  6
CONTINUOUS
 62
    3
 10
152.8728981690098
 20
244.36677014822482
 40
1
 50
89.999999999999986
 51
180
  0
LINE
  8
_0-8__Éí__û@
  6
CONTINUOUS
 62
    3
 10
176.8728981690098
 20
186.36677014822479
 11
176.8728981690098
 21
244.36677014822482
  0
LINE
  8
_0-8__Éí__û@
  6
CONTINUOUS
 62
    3
 10
152.8728981690098
 20
185.36677014822479
 11
175.8728981690098
 21
185.36677014822479
  0
LINE
  8
_0-8__Éí__û@
  6
CONTINUOUS
 62
    3
 10
151.8728981690098
 20
186.36677014822479
 11
151.8728981690098
 21
244.36677014822482
  0
ARC
  8
_0-8__Éí__û@
  6
CONTINUOUS
 62
    3
 10
152.8728981690098
 20
186.36677014822479
 40
1
 50
180
 51
270
  0
ARC
  8
_0-8__Éí__û@
  6
DASHED1
 62
    7
 10
168.8728981690098
 20
250.36677014822482
 40
4
 50
0
 51
180
  0
LINE
  8
_0-8__Éí__û@
  6
DASHED1
 62
    7
 10
164.8728981690098
 20
250.36677014822482
 11
164.8728981690098
 21
245.86677014822482
  0
LINE
  8
_0-8__Éí__û@
  6
DASHED1
 62
    7
 10
172.8728981690098
 20
250.36677014822482
 11
172.8728981690098
 21
245.86677014822482
  0
LINE
  8
_0-8__Éí__û@
  6
DASHED1
 62
    7
 10
158.8728981690098
 20
248.16677014822477
 11
164.3728981690098
 21
248.16677014822477
  0
LINE
  8
_0-8__Éí__û@
  6
DASHED1
 62
    7
 10
173.3728981690098
 20
248.16677014822477
 11
173.3728981690098
 21
245.86677014822482
  0
LINE
  8
_0-8__Éí__û@
  6
DASHED1
 62
    7
 10
173.3728981690098
 20
248.16677014822477
 11
178.8728981690098
 21
248.16677014822477
  0
LINE
  8
_0-8__Éí__û@
  6
DASHED1
 62
    7
 10
158.8728981690098
 20
245.86677014822482
 11
178.8728981690098
 21
245.86677014822482
  0
LINE
  8
_0-8__Éí__û@
  6
DASHED1
 62
    7
 10
164.3728981690098
 20
248.16677014822477
 11
164.3728981690098
 21
245.86677014822482
  0
LINE
  8
_0-8__Éí__û@
  6
DASHED1
 62
    7
 10
158.8728981690098
 20
248.16677014822477
 11
158.8728981690098
 21
182.5667701482248
  0
LINE
  8
_0-8__Éí__û@
  6
DASHED1
 62
    7
 10
178.8728981690098
 20
248.16677014822477
 11
178.8728981690098
 21
182.5667701482248
  0
ARC
  8
_0-8__Éí__û@
  6
DASHED1
 62
    7
 10
168.8728981690098
 20
180.36677014822479
 40
4
 50
180
 51
0
  0
LINE
  8
_0-8__Éí__û@
  6
DASHED1
 62
    7
 10
164.8728981690098
 20
180.36677014822479
 11
164.8728981690098
 21
184.86677014822479
  0
LINE
  8
_0-8__Éí__û@
  6
DASHED1
 62
    7
 10
172.8728981690098
 20
180.36677014822479
 11
172.8728981690098
 21
184.86677014822479
  0
LINE
  8
_0-8__Éí__û@
  6
DASHED1
 62
    7
 10
158.8728981690098
 20
182.5667701482248
 11
164.3728981690098
 21
182.5667701482248
  0
LINE
  8
_0-8__Éí__û@
  6
DASHED1
 62
    7
 10
173.3728981690098
 20
182.5667701482248
 11
173.3728981690098
 21
184.86677014822479
  0
LINE
  8
_0-8__Éí__û@
  6
DASHED1
 62
    7
 10
173.3728981690098
 20
182.5667701482248
 11
178.8728981690098
 21
182.5667701482248
  0
LINE
  8
_0-8__Éí__û@
  6
DASHED1
 62
    7
 10
158.8728981690098
 20
184.86677014822479
 11
178.8728981690098
 21
184.86677014822479
  0
LINE
  8
_0-8__Éí__û@
  6
DASHED1
 62
    7
 10
164.3728981690098
 20
182.5667701482248
 11
164.3728981690098
 21
184.86677014822479
  0
LINE
  8
_0-8__Éí__û@
  6
CENTER1
 62
    4
 10
168.8728981690098
 20
261.51510890038543
 11
168.8728981690098
 21
171.50054371978962
  0
LINE
  8
_0-8__Éí__û@
  6
CONTINUOUS
 62
    4
 10
164.8728981690098
 20
204.13800631455302
 11
164.8728981690098
 21
196.59553398189655
  0
LINE
  8
_0-8__Éí__û@
  6
CONTINUOUS
 62
    4
 10
163.8728981690098
 20
205.35564666392338
 11
163.8728981690098
 21
195.3778936325262
  0
LINE
  8
_0-8__Éí__û@
  6
CONTINUOUS
 62
    4
 10
162.8728981690098
 20
206.02362439771716
 11
162.8728981690098
 21
194.70991589873242
  0
LINE
  8
_0-8__Éí__û@
  6
CONTINUOUS
 62
    4
 10
161.8728981690098
 20
206.32961808822424
 11
161.8728981690098
 21
194.40392220822537
  0
LINE
  8
_0-8__Éí__û@
  6
CONTINUOUS
 62
    4
 10
160.8728981690098
 20
206.32961808822424
 11
160.8728981690098
 21
194.40392220822537
  0
LINE
  8
_0-8__Éí__û@
  6
CONTINUOUS
 62
    4
 10
159.8728981690098
 20
206.02362439771716
 11
159.8728981690098
 21
194.70991589873242
  0
LINE
  8
_0-8__Éí__û@
  6
CONTINUOUS
 62
    4
 10
158.8728981690098
 20
205.35564666392338
 11
158.8728981690098
 21
195.3778936325262
  0
LINE
  8
_0-8__Éí__û@
  6
CONTINUOUS
 62
    4
 10
157.8728981690098
 20
204.13800631455302
 11
157.8728981690098
 21
196.59553398189655
  0
LINE
  8
_0-8__Éí__û@
  6
CONTINUOUS
 62
    4
 10
190.69362384992303
 20
204.13800631455302
 11
190.69362384992303
 21
196.59553398189655
  0
LINE
  8
_0-8__Éí__û@
  6
CONTINUOUS
 62
    4
 10
189.69362384992303
 20
205.35564666392338
 11
189.69362384992303
 21
195.3778936325262
  0
LINE
  8
_0-8__Éí__û@
  6
CONTINUOUS
 62
    4
 10
188.69362384992303
 20
206.02362439771716
 11
188.69362384992303
 21
194.70991589873242
  0
LINE
  8
_0-8__Éí__û@
  6
CONTINUOUS
 62
    4
 10
187.69362384992303
 20
206.32961808822424
 11
187.69362384992303
 21
194.40392220822537
  0
LINE
  8
_0-8__Éí__û@
  6
CONTINUOUS
 62
    4
 10
186.69362384992303
 20
206.32961808822424
 11
186.69362384992303
 21
194.40392220822537
  0
LINE
  8
_0-8__Éí__û@
  6
CONTINUOUS
 62
    4
 10
185.69362384992303
 20
206.02362439771716
 11
185.69362384992303
 21
194.70991589873242
  0
LINE
  8
_0-8__Éí__û@
  6
CONTINUOUS
 62
    4
 10
184.69362384992303
 20
205.35564666392338
 11
184.69362384992303
 21
195.3778936325262
  0
LINE
  8
_0-8__Éí__û@
  6
CONTINUOUS
 62
    4
 10
183.69362384992303
 20
204.13800631455302
 11
183.69362384992303
 21
196.59553398189655
  0
LINE
  8
_0-8__Éí__û@
  6
CONTINUOUS
 62
    4
 10
139.8728981690098
 20
270.08411063150993
 11
151.8728981690098
 21
270.08411063150993
  0
POINT
  8
_0-8__Éí__û@
 62
    4
 10
139.8728981690098
 20
270.08411063150993
  0
POINT
  8
_0-8__Éí__û@
 62
    4
 10
151.8728981690098
 20
270.08411063150993
  0
LINE
  8
_0-8__Éí__û@
  6
CONTINUOUS
 62
    4
 10
139.8728981690098
 20
270.08411063150993
 11
139.8728981690098
 21
258.55944700447719
  0
TEXT
  8
_0-8__Éí__û@
 62
    7
 10
143.7478981690098
 20
270.58411063150993
 40
4
 41
1
 50
0
  1
12
  0
LINE
  8
_0-8__Éí__û@
  6
CONTINUOUS
 62
    4
 10
151.8728981690098
 20
270.08411063150993
 11
176.8728981690098
 21
270.08411063150993
  0
POINT
  8
_0-8__Éí__û@
 62
    4
 10
176.8728981690098
 20
270.08411063150993
  0
TEXT
  8
_0-8__Éí__û@
 62
    7
 10
162.2478981690098
 20
270.58411063150993
 40
4
 41
1
 50
0
  1
25
  0
LINE
  8
_0-8__Éí__û@
  6
CONTINUOUS
 62
    4
 10
139.8728981690098
 20
283.47305808056274
 11
197.8728981690098
 21
283.47305808056274
  0
POINT
  8
_0-8__Éí__û@
 62
    4
 10
139.8728981690098
 20
283.47305808056274
  0
POINT
  8
_0-8__Éí__û@
 62
    4
 10
197.8728981690098
 20
283.47305808056274
  0
LINE
  8
_0-8__Éí__û@
  6
CONTINUOUS
 62
    4
 10
139.8728981690098
 20
283.47305808056274
 11
139.8728981690098
 21
258.55944700447719
  0
LINE
  8
_0-8__Éí__û@
  6
CONTINUOUS
 62
    4
 10
197.8728981690098
 20
283.47305808056274
 11
197.8728981690098
 21
258.55944700447719
  0
TEXT
  8
_0-8__Éí__û@
 62
    7
 10
166.7478981690098
 20
283.97305808056274
 40
4
 41
1
 50
0
  1
58
  0
LINE
  8
_0-8__Éí__û@
  6
CONTINUOUS
 62
    4
 10
151.8728981690098
 20
270.08411063150993
 11
151.8728981690098
 21
246.21269252238591
  0
LINE
  8
_0-8__Éí__û@
  6
CONTINUOUS
 62
    4
 10
176.8728981690098
 20
270.08411063150993
 11
176.8728981690098
 21
246.21269252238591
  0
LINE
  8
_0-8__Éí__û@
  6
CONTINUOUS
 62
    4
 10
226.7568730700022
 20
257.36677014822482
 11
199.21134443472783
 21
257.36677014822482
  0
LINE
  8
_0-8__Éí__û@
  6
CONTINUOUS
 62
    4
 10
226.7568730700022
 20
173.36677014822479
 11
199.21134443472783
 21
173.36677014822479
  0
LINE
  8
_0-8__Éí__û@
  6
CONTINUOUS
 62
    4
 10
212.60828630577757
 20
257.36677014822482
 11
212.60828630577757
 21
245.36677014822482
  0
POINT
  8
_0-8__Éí__û@
 62
    4
 10
212.60828630577757
 20
257.36677014822482
  0
POINT
  8
_0-8__Éí__û@
 62
    4
 10
212.60828630577757
 20
245.36677014822482
  0
TEXT
  8
_0-8__Éí__û@
 62
    7
 10
212.10828630577757
 20
249.24177014822482
 40
4
 41
1
 50
90
  1
12
  0
LINE
  8
_0-8__Éí__û@
  6
CONTINUOUS
 62
    4
 10
212.60828630577757
 20
245.36677014822482
 11
212.60828630577757
 21
185.36677014822479
  0
POINT
  8
_0-8__Éí__û@
 62
    4
 10
212.60828630577757
 20
185.36677014822479
  0
TEXT
  8
_0-8__Éí__û@
 62
    7
 10
212.10828630577757
 20
213.24177014822482
 40
4
 41
1
 50
90
  1
60
  0
LINE
  8
_0-8__Éí__û@
  6
CONTINUOUS
 62
    4
 10
212.60828630577757
 20
185.36677014822479
 11
212.60828630577757
 21
173.36677014822479
  0
POINT
  8
_0-8__Éí__û@
 62
    4
 10
212.60828630577757
 20
173.36677014822479
  0
TEXT
  8
_0-8__Éí__û@
 62
    7
 10
212.10828630577757
 20
177.24177014822479
 40
4
 41
1
 50
90
  1
12
  0
LINE
  8
_0-8__Éí__û@
  6
CONTINUOUS
 62
    4
 10
226.7568730700022
 20
173.36677014822479
 11
226.7568730700022
 21
257.36677014822482
  0
POINT
  8
_0-8__Éí__û@
 62
    4
 10
226.7568730700022
 20
173.36677014822479
  0
POINT
  8
_0-8__Éí__û@
 62
    4
 10
226.7568730700022
 20
257.36677014822482
  0
LINE
  8
_0-8__Éí__û@
  6
CONTINUOUS
 62
    4
 10
226.7568730700022
 20
173.36677014822479
 11
199.21134443472783
 21
173.36677014822479
  0
LINE
  8
_0-8__Éí__û@
  6
CONTINUOUS
 62
    4
 10
226.7568730700022
 20
257.36677014822482
 11
199.21134443472783
 21
257.36677014822482
  0
TEXT
  8
_0-8__Éí__û@
 62
    7
 10
226.2568730700022
 20
213.24177014822482
 40
4
 41
1
 50
90
  1
84
  0
LINE
  8
_0-8__Éí__û@
  6
CONTINUOUS
 62
    4
 10
212.60828630577757
 20
245.36677014822482
 11
177.81864407269114
 21
245.36677014822482
  0
LINE
  8
_0-8__Éí__û@
  6
CONTINUOUS
 62
    4
 10
212.60828630577757
 20
185.36677014822479
 11
177.0362250362094
 21
185.36677014822479
  0
TEXT
  8
_0-8__Éí__û@
 62
    7
 10
144.05261672861636
 20
161.2330418894154
 40
4
 41
1
 50
0
  1
âwâAâëâCâôò¹î³
  0
LINE
  8
_0-8__Éí__û@
  6
CONTINUOUS
 62
    4
 10
179.09070874847458
 20
160.111349661677
 11
141.85052678755977
 21
160.111349661677
  0
LINE
  8
_0-8__Éí__û@
  6
CONTINUOUS
 62
    4
 10
187.78106856079893
 20
197.95277830578118
 11
179.09070874847458
 21
160.111349661677
  0
LINE
  8
_0-8__Éí__û@
  6
CONTINUOUS
 62
    4
 10
187.78106856079893
 20
197.95277830578118
 11
187.88922973328903
 21
194.95472874635664
  0
LINE
  8
_0-8__Éí__û@
  6
CONTINUOUS
 62
    4
 10
187.78106856079893
 20
197.95277830578118
 11
186.37571410416621
 21
195.30231063926976
  0
LINE
  8
_0-8__Éí__û@
  6
CONTINUOUS
 62
    4
 10
219.19905744991496
 20
90.85173473073543
 11
219.19905744991496
 21
128.85173473073542
  0
POINT
  8
_0-8__Éí__û@
 62
    4
 10
219.19905744991496
 20
90.85173473073543
  0
POINT
  8
_0-8__Éí__û@
 62
    4
 10
219.19905744991496
 20
128.85173473073542
  0
LINE
  8
_0-8__Éí__û@
  6
CONTINUOUS
 62
    4
 10
219.19905744991496
 20
128.85173473073542
 11
198.9035478349503
 21
128.85173473073542
  0
LINE
  8
_0-8__Éí__û@
  6
CONTINUOUS
 62
    4
 10
219.19905744991496
 20
90.85173473073543
 11
198.9035478349503
 21
90.85173473073543
  0
TEXT
  8
_0-8__Éí__û@
 62
    7
 10
218.75910771838778
 20
92.109980687045649
 40
4
 41
0.875
 50
90
  1
æ╬ë×öÓî·38çoü`45çoùp
  0
LINE
  8
_0-8__Éí__û@
  6
CONTINUOUS
 62
    4
 10
238.80786632813198
 20
144.85173473073542
 11
238.80786632813198
 21
74.85173473073543
  0
LINE
  8
_0-8__Éí__û@
  6
CONTINUOUS
 62
    4
 10
286.80786632813198
 20
144.85173473073542
 11
286.80786632813198
 21
74.85173473073543
  0
LINE
  8
_0-8__Éí__û@
  6
CONTINUOUS
 62
    4
 10
238.80786632813198
 20
144.85173473073542
 11
258.55786632813198
 21
144.85173473073542
  0
LINE
  8
_0-8__Éí__û@
  6
CONTINUOUS
 62
    4
 10
267.05786632813198
 20
144.85173473073542
 11
286.80786632813198
 21
144.85173473073542
  0
ARC
  8
_0-8__Éí__û@
  6
CONTINUOUS
 62
    4
 10
262.80786632813198
 20
144.85173473073542
 40
4.25
 50
0
 51
180
  0
ARC
  8
_0-8__Éí__û@
  6
CONTINUOUS
 62
    4
 10
262.80786632813198
 20
74.85173473073543
 40
4.25
 50
180
 51
0
  0
LINE
  8
_0-8__Éí__û@
  6
CONTINUOUS
 62
    4
 10
267.05786632813198
 20
74.85173473073543
 11
286.80786632813198
 21
74.85173473073543
  0
LINE
  8
_0-8__Éí__û@
  6
CONTINUOUS
 62
    4
 10
238.80786632813198
 20
74.85173473073543
 11
258.55786632813198
 21
74.85173473073543
  0
LINE
  8
_0-8__Éí__û@
  6
CENTER1
 62
    4
 10
262.80786632813198
 20
152.21247635948049
 11
262.80786632813198
 21
67.155560648768542
  0
LINE
  8
_0-8__Éí__û@
  6
CENTER1
 62
    4
 10
237.12328838528353
 20
109.85173473073542
 11
288.04038701027395
 21
109.85173473073542
  0
LINE
  8
_0-8__Éí__û@
  6
CONTINUOUS
 62
    4
 10
238.80786632813198
 20
156.44643884353454
 11
286.80786632813198
 21
156.44643884353454
  0
POINT
  8
_0-8__Éí__û@
 62
    4
 10
238.80786632813198
 20
156.44643884353454
  0
POINT
  8
_0-8__Éí__û@
 62
    4
 10
286.80786632813198
 20
156.44643884353454
  0
LINE
  8
_0-8__Éí__û@
  6
CONTINUOUS
 62
    4
 10
238.80786632813198
 20
156.44643884353454
 11
238.80786632813198
 21
145.58275767955735
  0
LINE
  8
_0-8__Éí__û@
  6
CONTINUOUS
 62
    4
 10
286.80786632813198
 20
156.44643884353454
 11
286.80786632813198
 21
145.58275767955735
  0
TEXT
  8
_0-8__Éí__û@
 62
    7
 10
260.68286632813198
 20
156.94643884353454
 40
4
 41
1
 50
0
  1
48
  0
LINE
  8
_0-8__Éí__û@
  6
CONTINUOUS
 62
    4
 10
297.52307656150435
 20
74.85173473073543
 11
297.52307656150435
 21
144.85173473073542
  0
POINT
  8
_0-8__Éí__û@
 62
    4
 10
297.52307656150435
 20
74.85173473073543
  0
POINT
  8
_0-8__Éí__û@
 62
    4
 10
297.52307656150435
 20
144.85173473073542
  0
LINE
  8
_0-8__Éí__û@
  6
CONTINUOUS
 62
    4
 10
297.52307656150435
 20
74.85173473073543
 11
287.1386754488791
 21
74.85173473073543
  0
LINE
  8
_0-8__Éí__û@
  6
CONTINUOUS
 62
    4
 10
297.52307656150435
 20
144.85173473073542
 11
287.1386754488791
 21
144.85173473073542
  0
TEXT
  8
_0-8__Éí__û@
 62
    7
 10
297.02307656150435
 20
107.72673473073543
 40
4
 41
1
 50
90
  1
70
  0
POINT
  8
_0-8__Éí__û@
 62
    4
 10
262.80786632813198
 20
74.85173473073543
  0
POINT
  8
_0-8__Éí__û@
 62
    4
 10
265.8130701481748
 20
71.846530910692607
  0
LINE
  8
_0-8__Éí__û@
  6
CONTINUOUS
 62
    4
 10
262.80786632813198
 20
74.85173473073543
 11
277.3686610529453
 21
60.29094000592211
  0
TEXT
  8
_0-8__Éí__û@
 62
    7
 10
266.49063587664295
 20
71.218450529318417
 40
4
 41
1
 50
-45.000000000000021
  1
2-R4.25
  0
POINT
  8
_0-8__Éí__û@
 62
    4
 10
127.49265222982208
 20
90.851734730735416
  0
LINE
  8
_0-8__Éí__û@
  6
CONTINUOUS
 62
    4
 10
127.49265222982208
 20
90.851734730735416
 11
138.74464658493042
 21
90.851734730735416
  0
LINE
  8
_0-8__Éí__û@
  6
CONTINUOUS
 62
    4
 10
127.49265222982208
 20
90.851734730735416
 11
127.49265222982208
 21
106.85173473073544
  0
POINT
  8
_0-8__Éí__û@
 62
    4
 10
127.49265222982208
 20
106.85173473073544
  0
LINE
  8
_0-8__Éí__û@
  6
CONTINUOUS
 62
    7
 10
196.8728981690098
 20
130.05173473073543
 11
140.8728981690098
 21
130.05173473073543
  0
LINE
  8
_0-8__Éí__û@
  6
CONTINUOUS
 62
    3
 10
139.87289816900983
 20
130.05173473073543
 11
139.87289816900983
 21
128.85173473073542
  0
LINE
  8
_0-8__Éí__û@
  6
CONTINUOUS
 62
    3
 10
139.87289816900983
 20
130.05173473073543
 11
197.8728981690098
 21
130.05173473073543
  0
LINE
  8
_0-8__Éí__û@
  6
CONTINUOUS
 62
    3
 10
139.87289816900983
 20
128.85173473073542
 11
197.8728981690098
 21
128.85173473073542
  0
LINE
  8
_0-8__Éí__û@
  6
CONTINUOUS
 62
    3
 10
197.8728981690098
 20
130.05173473073543
 11
197.8728981690098
 21
129.30437878671211
  0
LINE
  8
_0-8__Éí__û@
  6
CONTINUOUS
 62
    3
 10
197.8728981690098
 20
129.30437878671211
 11
197.8728981690098
 21
128.85173473073542
  0
ARC
  8
_0-8__Éí__û@
  6
CONTINUOUS
 62
    3
 10
182.8728981690098
 20
115.8517347307354
 40
2.9999999999999996
 50
270
 51
0
  0
LINE
  8
_0-8__Éí__û@
  6
CONTINUOUS
 62
    3
 10
167.8728981690098
 20
112.8517347307354
 11
182.8728981690098
 21
112.8517347307354
  0
ARC
  8
_0-8__Éí__û@
  6
DASHED1
 62
    7
 10
182.8728981690098
 20
115.8517347307354
 40
2.5
 50
270
 51
0
  0
LINE
  8
_0-8__Éí__û@
  6
DASHED1
 62
    7
 10
167.8728981690098
 20
113.3517347307354
 11
182.8728981690098
 21
113.3517347307354
  0
ARC
  8
_0-8__Éí__û@
  6
DASHED1
 62
    7
 10
167.8728981690098
 20
128.85173473073542
 40
15.500000000000004
 50
181.84857164522856
 51
270
  0
ARC
  8
_0-8__Éí__û@
  6
DASHED1
 62
    7
 10
151.88071257729032
 20
128.35173473073542
 40
0.5000000000000001
 50
359.99999999999994
 51
90.895501672758755
  0
ARC
  8
_0-8__Éí__û@
  6
CONTINUOUS
 62
    3
 10
167.8728981690098
 20
128.85173473073542
 40
16.000000000000004
 50
181.79078465932892
 51
270
  0
ARC
  8
_0-8__Éí__û@
  6
DASHED1
 62
    7
 10
185.8728981690098
 20
128.35173473073542
 40
0.5000000000000001
 50
89.999999999999972
 51
179.99999999999997
  0
LINE
  8
_0-8__Éí__û@
  6
DASHED1
 62
    7
 10
185.3728981690098
 20
115.8517347307354
 11
185.3728981690098
 21
128.35173473073542
  0
LINE
  8
_0-8__Éí__û@
  6
CONTINUOUS
 62
    3
 10
185.8728981690098
 20
115.8517347307354
 11
185.8728981690098
 21
128.35173473073542
  0
LINE
  8
_0-8__Éí__û@
  6
CONTINUOUS
 62
    3
 10
192.8728981690098
 20
128.85173473073542
 11
192.8728981690098
 21
128.35173473073542
  0
LINE
  8
_0-8__Éí__û@
  6
CONTINUOUS
 62
    3
 10
192.8728981690098
 20
128.35173473073542
 11
185.8728981690098
 21
128.35173473073542
  0
LINE
  8
_0-8__Éí__û@
  6
CONTINUOUS
 62
    3
 10
151.88071257729032
 20
128.35173473073542
 11
144.87289816900983
 21
128.35173473073542
  0
LINE
  8
_0-8__Éí__û@
  6
CONTINUOUS
 62
    3
 10
144.87289816900983
 20
128.85173473073542
 11
144.87289816900983
 21
128.35173473073542
  0
LINE
  8
_0-8__Éí__û@
  6
DASHED1
 62
    7
 10
176.8728981690098
 20
130.05173473073543
 11
176.8728981690098
 21
128.85173473073542
  0
LINE
  8
_0-8__Éí__û@
  6
DASHED1
 62
    7
 10
151.8728981690098
 20
130.05173473073543
 11
151.8728981690098
 21
128.85173473073542
  0
LINE
  8
_0-8__Éí__û@
  6
CONTINUOUS
 62
    3
 10
185.8728981690098
 20
128.35173473073542
 11
178.8728981690098
 21
128.35173473073542
  0
LINE
  8
_0-8__Éí__û@
  6
CONTINUOUS
 62
    3
 10
151.88071257729032
 20
128.35173473073542
 11
158.8728981690098
 21
128.35173473073542
  0
LINE
  8
_0-8__Éí__û@
  6
CONTINUOUS
 62
    3
 10
139.87289816900983
 20
89.651734730735427
 11
139.87289816900983
 21
90.851734730735416
  0
LINE
  8
_0-8__Éí__û@
  6
CONTINUOUS
 62
    3
 10
139.87289816900983
 20
89.651734730735427
 11
197.8728981690098
 21
89.651734730735427
  0
LINE
  8
_0-8__Éí__û@
  6
CONTINUOUS
 62
    3
 10
139.87289816900983
 20
90.851734730735416
 11
197.8728981690098
 21
90.851734730735416
  0
LINE
  8
_0-8__Éí__û@
  6
CONTINUOUS
 62
    3
 10
197.8728981690098
 20
89.651734730735427
 11
197.8728981690098
 21
90.399090674758725
  0
LINE
  8
_0-8__Éí__û@
  6
CONTINUOUS
 62
    3
 10
197.8728981690098
 20
90.399090674758725
 11
197.8728981690098
 21
90.851734730735416
  0
ARC
  8
_0-8__Éí__û@
  6
CONTINUOUS
 62
    3
 10
182.8728981690098
 20
103.85173473073543
 40
3
 50
0.0000000000000254
 51
90.000000000000028
  0
LINE
  8
_0-8__Éí__û@
  6
CONTINUOUS
 62
    3
 10
167.8728981690098
 20
106.85173473073543
 11
182.8728981690098
 21
106.85173473073543
  0
ARC
  8
_0-8__Éí__û@
  6
DASHED1
 62
    7
 10
182.8728981690098
 20
103.85173473073543
 40
2.4999999999999991
 50
0.0000000000000254
 51
90.000000000000028
  0
LINE
  8
_0-8__Éí__û@
  6
DASHED1
 62
    7
 10
167.8728981690098
 20
106.35173473073543
 11
182.8728981690098
 21
106.35173473073543
  0
ARC
  8
_0-8__Éí__û@
  6
DASHED1
 62
    7
 10
167.8728981690098
 20
90.851734730735444
 40
15.5
 50
90.000000000000014
 51
178.15142835477144
  0
ARC
  8
_0-8__Éí__û@
  6
DASHED1
 62
    7
 10
151.88071257729032
 20
91.351734730735444
 40
0.4999999999999999
 50
269.10449832724117
 51
0
  0
ARC
  8
_0-8__Éí__û@
  6
CONTINUOUS
 62
    3
 10
167.8728981690098
 20
90.851734730735444
 40
15.999999999999998
 50
90
 51
178.20921534067105
  0
ARC
  8
_0-8__Éí__û@
  6
DASHED1
 62
    7
 10
185.8728981690098
 20
91.351734730735444
 40
0.4999999999999999
 50
180
 51
270
  0
LINE
  8
_0-8__Éí__û@
  6
DASHED1
 62
    7
 10
185.3728981690098
 20
103.85173473073543
 11
185.3728981690098
 21
91.351734730735444
  0
LINE
  8
_0-8__Éí__û@
  6
CONTINUOUS
 62
    3
 10
185.8728981690098
 20
103.85173473073543
 11
185.8728981690098
 21
91.351734730735444
  0
LINE
  8
_0-8__Éí__û@
  6
CONTINUOUS
 62
    3
 10
192.8728981690098
 20
90.851734730735444
 11
192.8728981690098
 21
91.351734730735444
  0
LINE
  8
_0-8__Éí__û@
  6
CONTINUOUS
 62
    3
 10
192.8728981690098
 20
91.351734730735444
 11
185.8728981690098
 21
91.351734730735444
  0
LINE
  8
_0-8__Éí__û@
  6
CONTINUOUS
 62
    3
 10
151.88071257729032
 20
91.351734730735444
 11
144.87289816900983
 21
91.351734730735444
  0
LINE
  8
_0-8__Éí__û@
  6
CONTINUOUS
 62
    3
 10
144.87289816900983
 20
90.851734730735444
 11
144.87289816900983
 21
91.351734730735444
  0
LINE
  8
_0-8__Éí__û@
  6
DASHED1
 62
    7
 10
176.8728981690098
 20
89.651734730735427
 11
176.8728981690098
 21
90.851734730735416
  0
LINE
  8
_0-8__Éí__û@
  6
DASHED1
 62
    7
 10
151.8728981690098
 20
89.651734730735427
 11
151.8728981690098
 21
90.851734730735416
  0
LINE
  8
_0-8__Éí__û@
  6
DASHED1
 62
    4
 10
166.8728981690098
 20
90.651734730735399
 11
170.8728981690098
 21
90.651734730735399
  0
LINE
  8
_0-8__Éí__û@
  6
CONTINUOUS
 62
    4
 10
166.8728981690098
 20
118.95173473073541
 11
167.57289816900979
 21
119.65173473073541
  0
LINE
  8
_0-8__Éí__û@
  6
CONTINUOUS
 62
    4
 10
167.57289816900979
 20
119.65173473073541
 11
170.17289816900978
 21
119.65173473073541
  0
LINE
  8
_0-8__Éí__û@
  6
CONTINUOUS
 62
    4
 10
170.8728981690098
 20
118.95173473073541
 11
170.17289816900978
 21
119.65173473073541
  0
LINE
  8
_0-8__Éí__û@
  6
DASHED1
 62
    4
 10
166.8728981690098
 20
118.95173473073541
 11
170.8728981690098
 21
118.95173473073541
  0
LINE
  8
_0-8__Éí__û@
  6
CONTINUOUS
 62
    4
 10
165.8728981690098
 20
89.651734730735427
 11
166.8728981690098
 21
90.651734730735427
  0
LINE
  8
_0-8__Éí__û@
  6
CONTINUOUS
 62
    4
 10
166.8728981690098
 20
90.651734730735399
 11
166.8728981690098
 21
118.95173473073541
  0
LINE
  8
_0-8__Éí__û@
  6
CONTINUOUS
 62
    4
 10
170.8728981690098
 20
90.651734730735399
 11
170.8728981690098
 21
118.95173473073541
  0
LINE
  8
_0-8__Éí__û@
  6
CONTINUOUS
 62
    4
 10
171.8728981690098
 20
89.651734730735427
 11
170.8728981690098
 21
90.651734730735399
  0
LINE
  8
_0-8__Éí__û@
  6
DASHED1
 62
    4
 10
167.57289816900979
 20
90.651734730735399
 11
167.57289816900979
 21
119.6517347307354
  0
LINE
  8
_0-8__Éí__û@
  6
DASHED1
 62
    4
 10
170.17289816900978
 20
90.651734730735399
 11
170.17289816900978
 21
119.6517347307354
  0
LINE
  8
_0-8__Éí__û@
  6
CONTINUOUS
 62
    3
 10
185.8728981690098
 20
91.351734730735444
 11
170.8728981690098
 21
91.351734730735444
  0
LINE
  8
_0-8__Éí__û@
  6
CONTINUOUS
 62
    3
 10
151.88071257729032
 20
91.351734730735444
 11
166.8728981690098
 21
91.351734730735444
  0
POINT
  8
_0-8__Éí__û@
 62
    4
 10
182.8728981690098
 20
103.85173473073543
  0
POINT
  8
_0-8__Éí__û@
 62
    4
 10
184.99421851256943
 20
105.97305507429508
  0
LINE
  8
_0-8__Éí__û@
  6
CONTINUOUS
 62
    4
 10
177.62438732856594
 20
98.603223890291588
 11
184.99421851256943
 21
105.97305507429508
  0
TEXT
  8
_0-8__Éí__û@
 62
    7
 10
181.30771957901348
 20
96.42999088613648
 40
4
 41
1
 50
44.999999999999972
  1
R3
  0
LINE
  8
_0-8__Éí__û@
  6
DASHED1
 62
    4
 10
282.00786632813197
 20
251.66677014822477
 11
253.00786632813197
 21
251.66677014822477
  0
ARC
  8
_0-8__Éí__û@
  6
DASHED1
 62
    7
 10
267.80786632813198
 20
187.36677014822482
 40
1.3999999999999999
 50
180
 51
270
  0
LINE
  8
_0-8__Éí__û@
  6
DASHED1
 62
    7
 10
242.60786632813199
 20
245.36677014822482
 11
243.80786632813198
 21
245.36677014822482
  0
LINE
  8
_0-8__Éí__û@
  6
DASHED1
 62
    7
 10
242.60786632813199
 20
185.36677014822482
 11
243.80786632813198
 21
185.36677014822482
  0
LINE
  8
_0-8__Éí__û@
  6
DASHED1
 62
    7
 10
281.80786632813198
 20
185.36677014822482
 11
283.00786632813197
 21
185.36677014822482
  0
LINE
  8
_0-8__Éí__û@
  6
DASHED1
 62
    7
 10
281.80786632813198
 20
245.36677014822482
 11
283.00786632813197
 21
245.36677014822482
  0
LINE
  8
_0-8__Éí__û@
  6
CONTINUOUS
 62
    3
 10
257.80786632813198
 20
245.36677014822482
 11
243.80786632813198
 21
245.36677014822482
  0
ARC
  8
_0-8__Éí__û@
  6
CONTINUOUS
 62
    3
 10
257.80786632813198
 20
243.36677014822482
 40
2
 50
0.0000000000000127
 51
90.000000000000028
  0
LINE
  8
_0-8__Éí__û@
  6
CONTINUOUS
 62
    3
 10
267.80786632813198
 20
245.36677014822482
 11
281.80786632813198
 21
245.36677014822482
  0
ARC
  8
_0-8__Éí__û@
  6
CONTINUOUS
 62
    3
 10
267.80786632813198
 20
243.36677014822482
 40
2
 50
90
 51
180
  0
LINE
  8
_0-8__Éí__û@
  6
CONTINUOUS
 62
    3
 10
257.80786632813198
 20
185.36677014822482
 11
243.80786632813198
 21
185.36677014822482
  0
LINE
  8
_0-8__Éí__û@
  6
CONTINUOUS
 62
    3
 10
259.80786632813198
 20
187.36677014822479
 11
259.80786632813198
 21
243.36677014822482
  0
ARC
  8
_0-8__Éí__û@
  6
CONTINUOUS
 62
    3
 10
257.80786632813198
 20
187.36677014822482
 40
2
 50
270
 51
0
  0
LINE
  8
_0-8__Éí__û@
  6
CONTINUOUS
 62
    3
 10
267.80786632813198
 20
185.36677014822482
 11
281.80786632813198
 21
185.36677014822482
  0
ARC
  8
_0-8__Éí__û@
  6
CONTINUOUS
 62
    3
 10
267.80786632813198
 20
187.36677014822482
 40
2
 50
180
 51
270
  0
LINE
  8
_0-8__Éí__û@
  6
DASHED1
 62
    7
 10
257.80786632813198
 20
244.76677014822479
 11
243.80786632813198
 21
244.76677014822479
  0
ARC
  8
_0-8__Éí__û@
  6
DASHED1
 62
    7
 10
257.80786632813198
 20
243.36677014822482
 40
1.3999999999999999
 50
0.0000000000000127
 51
90.000000000000028
  0
LINE
  8
_0-8__Éí__û@
  6
CONTINUOUS
 62
    3
 10
265.80786632813198
 20
243.36677014822482
 11
265.80786632813198
 21
187.36677014822479
  0
LINE
  8
_0-8__Éí__û@
  6
DASHED1
 62
    7
 10
267.80786632813198
 20
244.76677014822479
 11
281.80786632813198
 21
244.76677014822479
  0
ARC
  8
_0-8__Éí__û@
  6
DASHED1
 62
    7
 10
267.80786632813198
 20
243.36677014822482
 40
1.3999999999999999
 50
90
 51
180
  0
LINE
  8
_0-8__Éí__û@
  6
DASHED1
 62
    7
 10
259.20786632813201
 20
187.36677014822482
 11
259.20786632813201
 21
243.36677014822482
  0
LINE
  8
_0-8__Éí__û@
  6
DASHED1
 62
    7
 10
257.80786632813198
 20
185.96677014822478
 11
243.80786632813198
 21
185.96677014822478
  0
ARC
  8
_0-8__Éí__û@
  6
DASHED1
 62
    7
 10
257.80786632813198
 20
187.36677014822482
 40
1.3999999999999999
 50
270
 51
0
  0
LINE
  8
_0-8__Éí__û@
  6
DASHED1
 62
    7
 10
266.407866328132
 20
187.36677014822482
 11
266.407866328132
 21
243.36677014822482
  0
LINE
  8
_0-8__Éí__û@
  6
DASHED1
 62
    7
 10
267.80786632813198
 20
185.96677014822478
 11
281.80786632813198
 21
185.96677014822478
  0
LINE
  8
_0-8__Éí__û@
  6
CONTINUOUS
 62
    3
 10
242.60786632813199
 20
257.36677014822482
 11
243.80786632813198
 21
257.36677014822482
  0
LINE
  8
_0-8__Éí__û@
  6
CONTINUOUS
 62
    3
 10
281.80786632813198
 20
257.36677014822482
 11
283.00786632813197
 21
257.36677014822482
  0
LINE
  8
_0-8__Éí__û@
  6
CONTINUOUS
 62
    3
 10
242.60786632813199
 20
257.36677014822482
 11
242.60786632813199
 21
173.36677014822479
  0
LINE
  8
_0-8__Éí__û@
  6
CONTINUOUS
 62
    3
 10
242.60786632813199
 20
173.36677014822479
 11
243.80786632813198
 21
173.36677014822479
  0
LINE
  8
_0-8__Éí__û@
  6
CONTINUOUS
 62
    3
 10
243.80786632813198
 20
257.36677014822482
 11
243.80786632813198
 21
173.36677014822479
  0
LINE
  8
_0-8__Éí__û@
  6
CONTINUOUS
 62
    3
 10
281.80786632813198
 20
257.36677014822482
 11
281.80786632813198
 21
173.36677014822479
  0
LINE
  8
_0-8__Éí__û@
  6
CONTINUOUS
 62
    3
 10
281.80786632813198
 20
173.36677014822479
 11
283.00786632813197
 21
173.36677014822479
  0
LINE
  8
_0-8__Éí__û@
  6
CONTINUOUS
 62
    3
 10
283.00786632813197
 20
257.36677014822482
 11
283.00786632813197
 21
173.36677014822479
  0
LINE
  8
_0-8__Éí__û@
  6
DASHED1
 62
    4
 10
282.00786632813197
 20
252.36677014822482
 11
282.00786632813197
 21
248.36677014822482
  0
LINE
  8
_0-8__Éí__û@
  6
CONTINUOUS
 62
    4
 10
253.70786632813196
 20
252.36677014822482
 11
253.00786632813197
 21
251.66677014822477
  0
LINE
  8
_0-8__Éí__û@
  6
CONTINUOUS
 62
    4
 10
253.00786632813197
 20
251.66677014822477
 11
253.00786632813197
 21
249.0667701482248
  0
LINE
  8
_0-8__Éí__û@
  6
CONTINUOUS
 62
    4
 10
253.70786632813198
 20
248.36677014822482
 11
253.00786632813197
 21
249.0667701482248
  0
LINE
  8
_0-8__Éí__û@
  6
DASHED1
 62
    4
 10
253.70786632813196
 20
252.36677014822482
 11
253.70786632813196
 21
248.36677014822482
  0
LINE
  8
_0-8__Éí__û@
  6
CONTINUOUS
 62
    4
 10
283.00786632813197
 20
253.36677014822482
 11
282.00786632813197
 21
252.36677014822482
  0
LINE
  8
_0-8__Éí__û@
  6
CONTINUOUS
 62
    4
 10
282.00786632813197
 20
252.36677014822482
 11
253.70786632813196
 21
252.36677014822482
  0
LINE
  8
_0-8__Éí__û@
  6
CONTINUOUS
 62
    4
 10
282.00786632813197
 20
248.36677014822482
 11
253.70786632813198
 21
248.36677014822482
  0
LINE
  8
_0-8__Éí__û@
  6
CONTINUOUS
 62
    4
 10
283.00786632813197
 20
247.36677014822482
 11
282.00786632813197
 21
248.36677014822482
  0
LINE
  8
_0-8__Éí__û@
  6
DASHED1
 62
    4
 10
282.00786632813197
 20
249.0667701482248
 11
253.00786632813197
 21
249.0667701482248
  0
LINE
  8
_0-8__Éí__û@
  6
DASHED1
 62
    4
 10
282.00786632813197
 20
182.36677014822479
 11
282.00786632813197
 21
178.36677014822479
  0
LINE
  8
_0-8__Éí__û@
  6
CONTINUOUS
 62
    4
 10
253.70786632813196
 20
182.36677014822479
 11
253.00786632813197
 21
181.66677014822477
  0
LINE
  8
_0-8__Éí__û@
  6
CONTINUOUS
 62
    4
 10
253.00786632813197
 20
181.66677014822477
 11
253.00786632813197
 21
179.0667701482248
  0
LINE
  8
_0-8__Éí__û@
  6
CONTINUOUS
 62
    4
 10
253.70786632813198
 20
178.36677014822479
 11
253.00786632813197
 21
179.0667701482248
  0
LINE
  8
_0-8__Éí__û@
  6
DASHED1
 62
    4
 10
253.70786632813196
 20
182.36677014822479
 11
253.70786632813196
 21
178.36677014822479
  0
LINE
  8
_0-8__Éí__û@
  6
CONTINUOUS
 62
    4
 10
283.00786632813197
 20
183.36677014822479
 11
282.00786632813197
 21
182.36677014822479
  0
LINE
  8
_0-8__Éí__û@
  6
CONTINUOUS
 62
    4
 10
282.00786632813197
 20
182.36677014822479
 11
253.70786632813196
 21
182.36677014822479
  0
LINE
  8
_0-8__Éí__û@
  6
CONTINUOUS
 62
    4
 10
282.00786632813197
 20
178.36677014822479
 11
253.70786632813198
 21
178.36677014822479
  0
LINE
  8
_0-8__Éí__û@
  6
CONTINUOUS
 62
    4
 10
283.00786632813197
 20
177.36677014822479
 11
282.00786632813197
 21
178.36677014822479
  0
LINE
  8
_0-8__Éí__û@
  6
DASHED1
 62
    4
 10
282.00786632813197
 20
181.66677014822477
 11
253.00786632813197
 21
181.66677014822477
  0
LINE
  8
_0-8__Éí__û@
  6
DASHED1
 62
    4
 10
282.00786632813197
 20
179.0667701482248
 11
253.00786632813197
 21
179.0667701482248
  0
LINE
  8
_0-8__Éí__û@
  6
CONTINUOUS
 62
    7
 10
263.10786632813199
 20
254.36677014822482
 11
260.80786632813198
 21
254.36677014822482
  0
LINE
  8
_0-8__Éí__û@
  6
CONTINUOUS
 62
    7
 10
260.80786632813198
 20
176.36677014822479
 11
263.10786632813199
 21
176.36677014822479
  0
ARC
  8
_0-8__Éí__û@
  6
CONTINUOUS
 62
    7
 10
260.80786632813198
 20
184.86677014822479
 40
2.2999999999999998
 50
270
 51
0
  0
ARC
  8
_0-8__Éí__û@
  6
CONTINUOUS
 62
    7
 10
260.80786632813198
 20
245.86677014822482
 40
2.2999999999999998
 50
0.0000000000000127
 51
90.000000000000028
  0
LINE
  8
_0-8__Éí__û@
  6
CONTINUOUS
 62
    7
 10
263.10786632813199
 20
254.36677014822482
 11
263.10786632813199
 21
176.36677014822479
  0
LINE
  8
_0-8__Éí__û@
  6
CONTINUOUS
 62
    7
 10
260.80786632813198
 20
248.16677014822477
 11
243.80786632813198
 21
248.16677014822477
  0
LINE
  8
_0-8__Éí__û@
  6
CONTINUOUS
 62
    7
 10
243.80786632813198
 20
245.86677014822482
 11
260.80786632813198
 21
245.86677014822482
  0
LINE
  8
_0-8__Éí__û@
  6
CONTINUOUS
 62
    7
 10
260.80786632813198
 20
182.5667701482248
 11
260.80786632813198
 21
176.36677014822479
  0
LINE
  8
_0-8__Éí__û@
  6
CONTINUOUS
 62
    7
 10
243.80786632813198
 20
184.86677014822479
 11
260.80786632813198
 21
184.86677014822479
  0
LINE
  8
_0-8__Éí__û@
  6
CONTINUOUS
 62
    7
 10
260.80786632813198
 20
182.5667701482248
 11
243.80786632813198
 21
182.5667701482248
  0
LINE
  8
_0-8__Éí__û@
  6
CONTINUOUS
 62
    7
 10
260.80786632813198
 20
245.86677014822482
 11
260.80786632813198
 21
184.86677014822479
  0
LINE
  8
_0-8__Éí__û@
  6
CONTINUOUS
 62
    7
 10
260.80786632813198
 20
254.36677014822482
 11
260.80786632813198
 21
248.16677014822477
  0
LINE
  8
_0-8__Éí__û@
  6
CENTER1
 62
    4
 10
285.25878261649234
 20
250.36677014822482
 11
249.50428586208835
 21
250.36677014822482
  0
LINE
  8
_0-8__Éí__û@
  6
CENTER1
 62
    4
 10
249.50428586208835
 20
180.36677014822479
 11
285.25878261649234
 21
180.36677014822479
  0
LINE
  8
_0-8__Éí__û@
  6
CONTINUOUS
 62
    7
 10
158.8728981690098
 20
108.8517347307354
 11
178.8728981690098
 21
108.8517347307354
  0
LINE
  8
_0-8__Éí__û@
  6
CONTINUOUS
 62
    7
 10
158.8728981690098
 20
111.1517347307354
 11
178.8728981690098
 21
111.1517347307354
  0
LINE
  8
_0-8__Éí__û@
  6
CONTINUOUS
 62
    7
 10
172.8728981690098
 20
111.1517347307354
 11
172.8728981690098
 21
108.8517347307354
  0
LINE
  8
_0-8__Éí__û@
  6
CONTINUOUS
 62
    7
 10
164.8728981690098
 20
111.1517347307354
 11
164.8728981690098
 21
108.8517347307354
  0
LINE
  8
_0-8__Éí__û@
  6
CONTINUOUS
 62
    7
 10
173.3728981690098
 20
111.1517347307354
 11
173.3728981690098
 21
108.8517347307354
  0
LINE
  8
_0-8__Éí__û@
  6
CONTINUOUS
 62
    7
 10
164.3728981690098
 20
111.1517347307354
 11
164.3728981690098
 21
108.8517347307354
  0
LINE
  8
_0-8__Éí__û@
  6
CONTINUOUS
 62
    7
 10
158.8728981690098
 20
128.85173473073542
 11
158.8728981690098
 21
108.8517347307354
  0
LINE
  8
_0-8__Éí__û@
  6
CONTINUOUS
 62
    7
 10
178.8728981690098
 20
128.85173473073542
 11
178.8728981690098
 21
108.8517347307354
  0
LINE
  8
_0-8__Éí__û@
  6
CONTINUOUS
 62
    4
 10
127.49265222982208
 20
108.8517347307354
 11
127.49265222982208
 21
128.85173473073542
  0
POINT
  8
_0-8__Éí__û@
 62
    4
 10
127.49265222982208
 20
108.8517347307354
  0
POINT
  8
_0-8__Éí__û@
 62
    4
 10
127.49265222982208
 20
128.85173473073542
  0
LINE
  8
_0-8__Éí__û@
  6
CONTINUOUS
 62
    4
 10
127.49265222982208
 20
128.85173473073542
 11
138.74464658493042
 21
128.85173473073542
  0
POINT
  8
_0-8__Éí__û@
 62
    4
 10
127.49265222982208
 20
130.05173473073543
  0
LINE
  8
_0-8__Éí__û@
  6
CONTINUOUS
 62
    4
 10
127.49265222982208
 20
130.05173473073543
 11
138.74464658493042
 21
130.05173473073543
  0
LINE
  8
_0-8__Éí__û@
  6
CONTINUOUS
 62
    4
 10
127.49265222982208
 20
128.85173473073542
 11
127.49265222982208
 21
138.55672705519112
  0
TEXT
  8
_0-8__Éí__û@
 62
    7
 10
127.50936154122228
 20
130.74979936584754
 40
4
 41
1
 50
90
  1
1.2
  0
TEXT
  8
_0-8__Éí__û@
 62
    7
 10
127.50936154122228
 20
116.47133951296912
 40
4
 41
1
 50
90
  1
20
  0
TEXT
  8
_0-8__Éí__û@
 62
    7
 10
127.40663880846775
 20
97.056743022364671
 40
4
 41
1
 50
90
  1
16
  0
LINE
  8
_0-8__Éí__û@
  6
CONTINUOUS
 62
    4
 10
127.49265222982208
 20
108.8517347307354
 11
157.99429096336266
 21
108.8517347307354
  0
LINE
  8
_0-8__Éí__û@
  6
CONTINUOUS
 62
    4
 10
127.49265222982208
 20
106.85173473073544
 11
163.2281211046166
 21
106.85173473073544
  0
LINE
  8
_0-8__Éí__û@
  6

 62
    4
 10
168.8728981690098
 20
176.46873014822478
 11
168.8728981690098
 21
184.2648101482248
  0
LINE
  8
_0-8__Éí__û@
  6
DASHED1
 62
    4
 10
168.43589816900979
 20
177.96327014822478
 11
168.43589816900979
 21
179.9297701482248
  0
LINE
  8
_0-8__Éí__û@
  6
DASHED1
 62
    4
 10
169.30989816900978
 20
177.96327014822478
 11
169.30989816900978
 21
179.9297701482248
  0
LINE
  8
_0-8__Éí__û@
  6
DASHED1
 62
    4
 10
169.30989816900978
 20
179.9297701482248
 11
171.27639816900978
 21
179.9297701482248
  0
LINE
  8
_0-8__Éí__û@
  6
DASHED1
 62
    4
 10
169.30989816900978
 20
180.8037701482248
 11
171.27639816900978
 21
180.8037701482248
  0
LINE
  8
_0-8__Éí__û@
  6
DASHED1
 62
    4
 10
169.30989816900978
 20
180.8037701482248
 11
169.30989816900978
 21
182.7702701482248
  0
LINE
  8
_0-8__Éí__û@
  6
DASHED1
 62
    4
 10
168.43589816900979
 20
180.8037701482248
 11
168.43589816900979
 21
182.7702701482248
  0
LINE
  8
_0-8__Éí__û@
  6
DASHED1
 62
    4
 10
166.46939816900979
 20
180.8037701482248
 11
168.43589816900979
 21
180.8037701482248
  0
LINE
  8
_0-8__Éí__û@
  6
DASHED1
 62
    4
 10
166.46939816900979
 20
179.9297701482248
 11
168.43589816900979
 21
179.9297701482248
  0
CIRCLE
  8
_0-8__Éí__û@
  6
DASHED1
 62
    4
 10
168.8728981690098
 20
180.36677014822479
 40
3.0590000000000002
  0
ARC
  8
_0-8__Éí__û@
  6
DASHED1
 62
    4
 10
168.8728981690098
 20
180.36677014822479
 40
2.4384600000000001
 50
259.69200000000001
 51
280.30799999999999
  0
ARC
  8
_0-8__Éí__û@
  6
DASHED1
 62
    4
 10
168.8728981690098
 20
180.36677014822479
 40
2.4384600000000001
 50
349.69200000000006
 51
10.308000000000035
  0
ARC
  8
_0-8__Éí__û@
  6
DASHED1
 62
    4
 10
168.8728981690098
 20
180.36677014822479
 40
2.4384600000000001
 50
79.691999999999993
 51
100.30799999999999
  0
ARC
  8
_0-8__Éí__û@
  6
DASHED1
 62
    4
 10
168.8728981690098
 20
180.36677014822479
 40
2.4384600000000001
 50
169.69200000000004
 51
190.30799999999999
  0
LINE
  8
_0-8__Éí__û@
  6

 62
    4
 10
168.8728981690098
 20
246.46873014822481
 11
168.8728981690098
 21
254.2648101482248
  0
LINE
  8
_0-8__Éí__û@
  6
DASHED1
 62
    4
 10
168.43589816900979
 20
247.96327014822481
 11
168.43589816900979
 21
249.9297701482248
  0
LINE
  8
_0-8__Éí__û@
  6
DASHED1
 62
    4
 10
169.30989816900978
 20
247.96327014822481
 11
169.30989816900978
 21
249.9297701482248
  0
LINE
  8
_0-8__Éí__û@
  6
DASHED1
 62
    4
 10
169.30989816900978
 20
249.9297701482248
 11
171.27639816900978
 21
249.9297701482248
  0
LINE
  8
_0-8__Éí__û@
  6
DASHED1
 62
    4
 10
169.30989816900978
 20
250.8037701482248
 11
171.27639816900978
 21
250.8037701482248
  0
LINE
  8
_0-8__Éí__û@
  6
DASHED1
 62
    4
 10
169.30989816900978
 20
250.8037701482248
 11
169.30989816900978
 21
252.7702701482248
  0
LINE
  8
_0-8__Éí__û@
  6
DASHED1
 62
    4
 10
168.43589816900979
 20
250.8037701482248
 11
168.43589816900979
 21
252.7702701482248
  0
LINE
  8
_0-8__Éí__û@
  6
DASHED1
 62
    4
 10
166.46939816900979
 20
250.8037701482248
 11
168.43589816900979
 21
250.8037701482248
  0
LINE
  8
_0-8__Éí__û@
  6
DASHED1
 62
    4
 10
166.46939816900979
 20
249.9297701482248
 11
168.43589816900979
 21
249.9297701482248
  0
ARC
  8
_0-8__Éí__û@
  6
DASHED1
 62
    4
 10
168.8728981690098
 20
250.36677014822482
 40
2.4384600000000001
 50
259.69200000000001
 51
280.30799999999999
  0
ARC
  8
_0-8__Éí__û@
  6
DASHED1
 62
    4
 10
168.8728981690098
 20
250.36677014822482
 40
2.4384600000000001
 50
349.69200000000006
 51
10.308000000000035
  0
ARC
  8
_0-8__Éí__û@
  6
DASHED1
 62
    4
 10
168.8728981690098
 20
250.36677014822482
 40
2.4384600000000001
 50
79.691999999999993
 51
100.30799999999999
  0
ARC
  8
_0-8__Éí__û@
  6
DASHED1
 62
    4
 10
168.8728981690098
 20
250.36677014822482
 40
2.4384600000000001
 50
169.69200000000004
 51
190.30799999999999
  0
CIRCLE
  8
_0-8__Éí__û@
  6
DASHED1
 62
    4
 10
168.8728981690098
 20
250.36677014822482
 40
3.0590000000000002
  0
CIRCLE
  8
_0-8__Éí__û@
  6
DASHED1
 62
    4
 10
168.8728981690098
 20
250.36677014822482
 40
2
  0
CIRCLE
  8
_0-8__Éí__û@
  6
DASHED1
 62
    4
 10
168.8728981690098
 20
180.36677014822479
 40
2
  0
TEXT
  8
_0-8__Éí__û@
 62
    7
 10
125.38795731934123
 20
47.564863871741721
 40
4
 41
1
 50
0
  1
üªÄµòt╦Ì¢ M4ü~30 D=6 SUS 2î┬(─Ì▒î·38ü`45ùp)ü@òWÅÇì½ò´òi
  0
TEXT
  8
_0-8__Éí__û@
 62
    7
 10
147.88795731934124
 20
41.564863871741721
 40
4
 41
1
 50
0
  1
M4ü~40 D=6 SUS 2î┬(─Ì▒î·40ü`55ùp)ü@òWÅÇì½ò´òi
  0
TEXT
  8
_0-8__Éí__û@
 62
    7
 10
233.71426981503544
 20
64.89425100675669
 40
4
 41
1
 50
0
  1
ÉÏîçé½
  0
LINE
  8
_0-8__Éí__û@
  6
CONTINUOUS
 62
    4
 10
232.12872439955518
 20
64.377173882454542
 11
247.52710874588672
 21
64.377173882454542
  0
LINE
  8
_0-8__Éí__û@
  6
CONTINUOUS
 62
    4
 10
232.12872439955518
 20
63.377173882454542
 11
247.52710874588672
 21
63.377173882454542
  0
LINE
  8
_0-8__Éí__û@
  6
PHANTOM1
 62
    4
 10
221.35571923370603
 20
127.25173473073542
 11
121.08562349734744
 21
127.25173473073542
  0
LINE
  8
_0-8__Éí__û@
  6
PHANTOM1
 62
    4
 10
221.9775492847842
 20
92.451734730735438
 11
121.08562349734744
 21
92.451734730735438
  0
LINE
  8
_0-8__Éí__û@
  6
PHANTOM1
 62
    4
 10
221.35571923370603
 20
128.85173473073542
 11
121.08562349734744
 21
128.85173473073542
  0
LINE
  8
_0-8__Éí__û@
  6
PHANTOM1
 62
    4
 10
221.9775492847842
 20
90.85173473073543
 11
121.08562349734744
 21
90.85173473073543
  0
LINE
  8
_0-8__Éí__û@
  6
DASHED1
 62
    4
 10
144.8728981690098
 20
128.85173473073542
 11
144.8728981690098
 21
127.25173473073542
  0
LINE
  8
_0-8__Éí__û@
  6
DASHED1
 62
    4
 10
192.8728981690098
 20
128.85173473073542
 11
192.8728981690098
 21
127.25173473073542
  0
LINE
  8
_0-8__Éí__û@
  6
DASHED1
 62
    4
 10
192.8728981690098
 20
92.451734730735438
 11
192.8728981690098
 21
90.851734730735444
  0
LINE
  8
_0-8__Éí__û@
  6
DASHED1
 62
    4
 10
144.8728981690098
 20
92.451734730735438
 11
144.8728981690098
 21
90.851734730735416
  0
LINE
  8
_0-8__Éí__û@
  6
DASHED1
 62
    4
 10
191.58016185548198
 20
127.25173473073531
 11
192.87289816900991
 21
128.54447104426325
  0
LINE
  8
_0-8__Éí__û@
  6
DASHED1
 62
    4
 10
188.75173473073554
 20
127.25173473073555
 11
190.35173473073499
 21
128.85173473073499
  0
LINE
  8
_0-8__Éí__û@
  6
DASHED1
 62
    4
 10
185.92330760598904
 20
127.25173473073572
 11
187.52330760598852
 21
128.85173473073519
  0
LINE
  8
_0-8__Éí__û@
  6
DASHED1
 62
    4
 10
183.09488048124362
 20
127.25173473073514
 11
184.69488048124359
 21
128.8517347307351
  0
LINE
  8
_0-8__Éí__û@
  6
DASHED1
 62
    4
 10
180.26645335649721
 20
127.25173473073538
 11
181.86645335649717
 21
128.85173473073536
  0
LINE
  8
_0-8__Éí__û@
  6
DASHED1
 62
    4
 10
177.43802623175077
 20
127.25173473073563
 11
179.03802623175022
 21
128.85173473073507
  0
LINE
  8
_0-8__Éí__û@
  6
DASHED1
 62
    4
 10
174.60959910700416
 20
127.25173473073568
 11
176.20959910700361
 21
128.85173473073513
  0
LINE
  8
_0-8__Éí__û@
  6
DASHED1
 62
    4
 10
171.78117198225885
 20
127.25173473073521
 11
173.38117198225882
 21
128.85173473073519
  0
LINE
  8
_0-8__Éí__û@
  6
DASHED1
 62
    4
 10
168.95274485751241
 20
127.25173473073546
 11
170.55274485751238
 21
128.85173473073544
  0
LINE
  8
_0-8__Éí__û@
  6
DASHED1
 62
    4
 10
166.12431773276569
 20
127.25173473073541
 11
167.72431773276517
 21
128.85173473073488
  0
LINE
  8
_0-8__Éí__û@
  6
DASHED1
 62
    4
 10
163.29589060801925
 20
127.25173473073562
 11
164.8958906080187
 21
128.85173473073507
  0
LINE
  8
_0-8__Éí__û@
  6
DASHED1
 62
    4
 10
160.46746348327406
 20
127.25173473073528
 11
162.06746348327403
 21
128.85173473073527
  0
LINE
  8
_0-8__Éí__û@
  6
DASHED1
 62
    4
 10
157.63903635852765
 20
127.25173473073554
 11
159.23903635852761
 21
128.85173473073553
  0
LINE
  8
_0-8__Éí__û@
  6
DASHED1
 62
    4
 10
154.81060923378081
 20
127.25173473073536
 11
156.41060923378026
 21
128.85173473073482
  0
LINE
  8
_0-8__Éí__û@
  6
DASHED1
 62
    4
 10
151.98218210903428
 20
127.25173473073551
 11
153.58218210903374
 21
128.85173473073496
  0
LINE
  8
_0-8__Éí__û@
  6
DASHED1
 62
    4
 10
149.15375498428929
 20
127.25173473073536
 11
150.75375498428926
 21
128.85173473073533
  0
LINE
  8
_0-8__Éí__û@
  6
DASHED1
 62
    4
 10
146.32532785954288
 20
127.25173473073562
 11
147.92532785954285
 21
128.85173473073559
  0
LINE
  8
_0-8__Éí__û@
  6
DASHED1
 62
    4
 10
144.87289816901034
 20
128.62773216494975
 11
145.09690073479535
 21
128.85173473073479
  0
LINE
  8
_0-8__Éí__û@
  6
DASHED1
 62
    4
 10
191.94971447718166
 20
90.851734730735586
 11
192.8728981690096
 21
91.774918422563559
  0
LINE
  8
_0-8__Éí__û@
  6
DASHED1
 62
    4
 10
189.12128735243616
 20
90.851734730734933
 11
190.72128735243666
 21
92.451734730735467
  0
LINE
  8
_0-8__Éí__û@
  6
DASHED1
 62
    4
 10
186.29286022768974
 20
90.851734730735188
 11
187.89286022768974
 21
92.451734730735183
  0
LINE
  8
_0-8__Éí__û@
  6
DASHED1
 62
    4
 10
183.46443310294322
 20
90.85173473073533
 11
185.06443310294321
 21
92.451734730735339
  0
LINE
  8
_0-8__Éí__û@
  6
DASHED1
 62
    4
 10
180.63600597819638
 20
90.85173473073516
 11
182.23600597819637
 21
92.451734730735154
  0
LINE
  8
_0-8__Éí__û@
  6
DASHED1
 62
    4
 10
177.80757885345139
 20
90.851734730735018
 11
179.40757885345189
 21
92.451734730735524
  0
LINE
  8
_0-8__Éí__û@
  6
DASHED1
 62
    4
 10
174.97915172870495
 20
90.851734730735274
 11
176.57915172870494
 21
92.451734730735254
  0
LINE
  8
_0-8__Éí__û@
  6
DASHED1
 62
    4
 10
172.15072460395831
 20
90.851734730735288
 11
173.75072460395833
 21
92.451734730735296
  0
LINE
  8
_0-8__Éí__û@
  6
DASHED1
 62
    4
 10
169.32229747921158
 20
90.851734730735231
 11
170.92229747921158
 21
92.451734730735211
  0
LINE
  8
_0-8__Éí__û@
  6
DASHED1
 62
    4
 10
166.49387035446659
 20
90.851734730735103
 11
168.09387035446713
 21
92.451734730735609
  0
LINE
  8
_0-8__Éí__û@
  6
DASHED1
 62
    4
 10
163.66544322972018
 20
90.851734730735345
 11
165.26544322972018
 21
92.451734730735325
  0
LINE
  8
_0-8__Éí__û@
  6
DASHED1
 62
    4
 10
160.8370161049734
 20
90.851734730735231
 11
162.43701610497342
 21
92.45173473073524
  0
LINE
  8
_0-8__Éí__û@
  6
DASHED1
 62
    4
 10
158.00858898022631
 20
90.85173473073479
 11
159.60858898022681
 21
92.451734730735296
  0
LINE
  8
_0-8__Éí__û@
  6
DASHED1
 62
    4
 10
155.18016185548186
 20
90.851734730735188
 11
156.78016185548182
 21
92.451734730735168
  0
LINE
  8
_0-8__Éí__û@
  6
DASHED1
 62
    4
 10
152.35173473073542
 20
90.851734730735416
 11
153.95173473073541
 21
92.45173473073541
  0
LINE
  8
_0-8__Éí__û@
  6
DASHED1
 62
    4
 10
149.52330760598852
 20
90.851734730735188
 11
151.12330760598854
 21
92.451734730735211
  0
LINE
  8
_0-8__Éí__û@
  6
DASHED1
 62
    4
 10
146.69488048124347
 20
90.851734730735018
 11
148.29488048124401
 21
92.451734730735524
  0
LINE
  8
_0-8__Éí__û@
  6
DASHED1
 62
    4
 10
144.87289816900997
 20
91.85817954324817
 11
145.46645335649706
 21
92.45173473073524
  0
LINE
  8
_0-8__Éí__û@
  6
PHANTOM1
 62
    4
 10
245.407866328132
 20
270.04741862146631
 11
245.407866328132
 21
162.70994105128926
  0
LINE
  8
_0-8__Éí__û@
  6
PHANTOM1
 62
    4
 10
280.20786632813201
 20
270.04741862146631
 11
280.20786632813201
 21
162.70994105128926
  0
LINE
  8
_0-8__Éí__û@
  6
PHANTOM1
 62
    4
 10
243.80786632813198
 20
270.04741862146631
 11
243.80786632813198
 21
162.70994105128926
  0
LINE
  8
_0-8__Éí__û@
  6
PHANTOM1
 62
    4
 10
281.80786632813198
 20
270.04741862146631
 11
281.80786632813198
 21
162.70994105128926
  0
LINE
  8
_0-8__Éí__û@
  6
DASHED1
 62
    4
 10
280.20786632813201
 20
254.61677014822482
 11
281.80786632813198
 21
254.61677014822482
  0
LINE
  8
_0-8__Éí__û@
  6
DASHED1
 62
    4
 10
243.80786632813198
 20
250.36677014822482
 11
245.407866328132
 21
250.36677014822482
  0
LINE
  8
_0-8__Éí__û@
  6
DASHED1
 62
    4
 10
243.80786632813198
 20
254.61677014822482
 11
245.407866328132
 21
254.61677014822482
  0
LINE
  8
_0-8__Éí__û@
  6
DASHED1
 62
    4
 10
243.80786632813198
 20
180.36677014822482
 11
245.407866328132
 21
180.36677014822482
  0
LINE
  8
_0-8__Éí__û@
  6
DASHED1
 62
    4
 10
243.80786632813198
 20
176.11677014822482
 11
245.407866328132
 21
176.11677014822482
  0
LINE
  8
_0-8__Éí__û@
  6
DASHED1
 62
    4
 10
280.20786632813201
 20
176.11677014822482
 11
281.80786632813198
 21
176.11677014822482
  0
LINE
  8
_0-8__Éí__û@
  6
DASHED1
 62
    4
 10
280.20786632813235
 20
176.28145945693961
 11
281.80786632813238
 21
177.88145945693961
  0
LINE
  8
_0-8__Éí__û@
  6
DASHED1
 62
    4
 10
280.20786632813213
 20
179.10988658168606
 11
281.80786632813209
 21
180.70988658168602
  0
LINE
  8
_0-8__Éí__û@
  6
DASHED1
 62
    4
 10
280.20786632813179
 20
181.93831370643053
 11
281.80786632813226
 21
183.53831370643104
  0
LINE
  8
_0-8__Éí__û@
  6
DASHED1
 62
    4
 10
280.20786632813207
 20
184.76674083117751
 11
281.80786632813204
 21
186.36674083117748
  0
LINE
  8
_0-8__Éí__û@
  6
DASHED1
 62
    4
 10
280.2078663281323
 20
187.59516795592441
 11
281.80786632813226
 21
189.19516795592438
  0
LINE
  8
_0-8__Éí__û@
  6
DASHED1
 62
    4
 10
280.20786632813201
 20
190.42359508067079
 11
281.80786632813204
 21
192.02359508067079
  0
LINE
  8
_0-8__Éí__û@
  6
DASHED1
 62
    4
 10
280.20786632813179
 20
193.25202220541539
 11
281.80786632813226
 21
194.85202220541589
  0
LINE
  8
_0-8__Éí__û@
  6
DASHED1
 62
    4
 10
280.20786632813207
 20
196.08044933016234
 11
281.80786632813204
 21
197.68044933016233
  0
LINE
  8
_0-8__Éí__û@
  6
DASHED1
 62
    4
 10
280.20786632813218
 20
198.90887645490915
 11
281.80786632813215
 21
200.50887645490911
  0
LINE
  8
_0-8__Éí__û@
  6
DASHED1
 62
    4
 10
280.20786632813196
 20
201.73730357965556
 11
281.80786632813192
 21
203.33730357965555
  0
LINE
  8
_0-8__Éí__û@
  6
DASHED1
 62
    4
 10
280.20786632813179
 20
204.56573070440021
 11
281.80786632813226
 21
206.16573070440074
  0
LINE
  8
_0-8__Éí__û@
  6
DASHED1
 62
    4
 10
280.20786632813201
 20
207.39415782914719
 11
281.80786632813204
 21
208.99415782914718
  0
LINE
  8
_0-8__Éí__û@
  6
DASHED1
 62
    4
 10
280.20786632813213
 20
210.22258495389394
 11
281.80786632813209
 21
211.82258495389391
  0
LINE
  8
_0-8__Éí__û@
  6
DASHED1
 62
    4
 10
280.20786632813184
 20
213.05101207864033
 11
281.80786632813181
 21
214.65101207864029
  0
LINE
  8
_0-8__Éí__û@
  6
DASHED1
 62
    4
 10
280.20786632813173
 20
215.87943920338506
 11
281.80786632813226
 21
217.47943920338557
  0
LINE
  8
_0-8__Éí__û@
  6
DASHED1
 62
    4
 10
280.20786632813224
 20
218.70786632813227
 11
281.80786632813226
 21
220.30786632813223
  0
LINE
  8
_0-8__Éí__û@
  6
DASHED1
 62
    4
 10
280.20786632813201
 20
221.53629345287868
 11
281.80786632813204
 21
223.13629345287868
  0
LINE
  8
_0-8__Éí__û@
  6
DASHED1
 62
    4
 10
280.20786632813196
 20
224.36472057762347
 11
281.80786632813249
 21
225.96472057762398
  0
LINE
  8
_0-8__Éí__û@
  6
DASHED1
 62
    4
 10
280.20786632813224
 20
227.19314770237042
 11
281.80786632813226
 21
228.79314770237042
  0
LINE
  8
_0-8__Éí__û@
  6
DASHED1
 62
    4
 10
280.20786632813218
 20
230.02157482711704
 11
281.80786632813215
 21
231.621574827117
  0
LINE
  8
_0-8__Éí__û@
  6
DASHED1
 62
    4
 10
280.2078663281319
 20
232.85000195186342
 11
281.80786632813192
 21
234.45000195186344
  0
LINE
  8
_0-8__Éí__û@
  6
DASHED1
 62
    4
 10
280.20786632813196
 20
235.67842907660832
 11
281.80786632813249
 21
237.2784290766088
  0
LINE
  8
_0-8__Éí__û@
  6
DASHED1
 62
    4
 10
280.20786632813224
 20
238.50685620135528
 11
281.80786632813226
 21
240.10685620135524
  0
LINE
  8
_0-8__Éí__û@
  6
DASHED1
 62
    4
 10
280.20786632813213
 20
241.33528332610177
 11
281.80786632813209
 21
242.93528332610177
  0
LINE
  8
_0-8__Éí__û@
  6
DASHED1
 62
    4
 10
280.20786632813184
 20
244.16371045084821
 11
281.80786632813181
 21
245.76371045084818
  0
LINE
  8
_0-8__Éí__û@
  6
DASHED1
 62
    4
 10
280.2078663281319
 20
246.99213757559312
 11
281.80786632813243
 21
248.59213757559365
  0
LINE
  8
_0-8__Éí__û@
  6
DASHED1
 62
    4
 10
280.20786632813224
 20
249.82056470034013
 11
281.80786632813226
 21
251.42056470034009
  0
LINE
  8
_0-8__Éí__û@
  6
DASHED1
 62
    4
 10
280.20786632813201
 20
252.64899182508657
 11
281.80786632813198
 21
254.24899182508653
  0
LINE
  8
_0-8__Éí__û@
  6
DASHED1
 62
    4
 10
243.80786632813229
 20
176.65101207864078
 11
245.40786632813175
 21
178.25101207864023
  0
LINE
  8
_0-8__Éí__û@
  6
DASHED1
 62
    4
 10
243.80786632813192
 20
179.47943920338525
 11
245.40786632813192
 21
181.07943920338525
  0
LINE
  8
_0-8__Éí__û@
  6
DASHED1
 62
    4
 10
243.80786632813218
 20
182.30786632813218
 11
245.40786632813217
 21
183.90786632813214
  0
LINE
  8
_0-8__Éí__û@
  6
DASHED1
 62
    4
 10
243.80786632813246
 20
185.1362934528791
 11
245.40786632813192
 21
186.73629345287856
  0
LINE
  8
_0-8__Éí__û@
  6
DASHED1
 62
    4
 10
243.80786632813215
 20
187.96472057762367
 11
245.40786632813214
 21
189.56472057762363
  0
LINE
  8
_0-8__Éí__û@
  6
DASHED1
 62
    4
 10
243.80786632813192
 20
190.79314770237011
 11
245.40786632813192
 21
192.39314770237007
  0
LINE
  8
_0-8__Éí__û@
  6
DASHED1
 62
    4
 10
243.8078663281326
 20
193.62157482711746
 11
245.40786632813206
 21
195.22157482711691
  0
LINE
  8
_0-8__Éí__û@
  6
DASHED1
 62
    4
 10
243.80786632813238
 20
196.4500019518639
 11
245.40786632813183
 21
198.05000195186335
  0
LINE
  8
_0-8__Éí__û@
  6
DASHED1
 62
    4
 10
243.80786632813215
 20
199.27842907660849
 11
245.40786632813212
 21
200.87842907660848
  0
LINE
  8
_0-8__Éí__û@
  6
DASHED1
 62
    4
 10
243.80786632813189
 20
202.10685620135493
 11
245.40786632813189
 21
203.70685620135492
  0
LINE
  8
_0-8__Éí__û@
  6
DASHED1
 62
    4
 10
243.80786632813255
 20
204.93528332610222
 11
245.407866328132
 21
206.53528332610168
  0
LINE
  8
_0-8__Éí__û@
  6
DASHED1
 62
    4
 10
243.80786632813229
 20
207.76371045084866
 11
245.40786632813175
 21
209.36371045084809
  0
LINE
  8
_0-8__Éí__û@
  6
DASHED1
 62
    4
 10
243.80786632813212
 20
210.59213757559334
 11
245.40786632813212
 21
212.19213757559334
  0
LINE
  8
_0-8__Éí__û@
  6
DASHED1
 62
    4
 10
243.80786632813189
 20
213.42056470033978
 11
245.40786632813189
 21
215.02056470033978
  0
LINE
  8
_0-8__Éí__û@
  6
DASHED1
 62
    4
 10
243.80786632813243
 20
216.24899182508699
 11
245.40786632813189
 21
217.84899182508644
  0
LINE
  8
_0-8__Éí__û@
  6
DASHED1
 62
    4
 10
243.80786632813221
 20
219.07741894983343
 11
245.40786632813166
 21
220.67741894983288
  0
LINE
  8
_0-8__Éí__û@
  6
DASHED1
 62
    4
 10
243.80786632813212
 20
221.90584607457816
 11
245.40786632813212
 21
223.50584607457819
  0
LINE
  8
_0-8__Éí__û@
  6
DASHED1
 62
    4
 10
243.80786632813187
 20
224.7342731993246
 11
245.40786632813189
 21
226.3342731993246
  0
LINE
  8
_0-8__Éí__û@
  6
DASHED1
 62
    4
 10
243.80786632813238
 20
227.56270032407176
 11
245.40786632813183
 21
229.16270032407121
  0
LINE
  8
_0-8__Éí__û@
  6
DASHED1
 62
    4
 10
243.80786632813212
 20
230.3911274488182
 11
245.40786632813158
 21
231.99112744881762
  0
LINE
  8
_0-8__Éí__û@
  6
DASHED1
 62
    4
 10
243.80786632813209
 20
233.21955457356302
 11
245.40786632813212
 21
234.81955457356301
  0
LINE
  8
_0-8__Éí__û@
  6
DASHED1
 62
    4
 10
243.80786632813198
 20
236.04798169830957
 11
245.40786632813197
 21
237.64798169830956
  0
LINE
  8
_0-8__Éí__û@
  6
DASHED1
 62
    4
 10
243.80786632813226
 20
238.87640882305652
 11
245.40786632813172
 21
240.47640882305598
  0
LINE
  8
_0-8__Éí__û@
  6
DASHED1
 62
    4
 10
243.80786632813232
 20
241.70483594780143
 11
245.40786632813234
 21
243.30483594780142
  0
LINE
  8
_0-8__Éí__û@
  6
DASHED1
 62
    4
 10
243.80786632813209
 20
244.53326307254787
 11
245.40786632813212
 21
246.13326307254786
  0
LINE
  8
_0-8__Éí__û@
  6
DASHED1
 62
    4
 10
243.80786632813243
 20
247.36169019729488
 11
245.40786632813189
 21
248.96169019729433
  0
LINE
  8
_0-8__Éí__û@
  6
DASHED1
 62
    4
 10
243.80786632813221
 20
250.19011732204129
 11
245.40786632813166
 21
251.79011732204074
  0
LINE
  8
_0-8__Éí__û@
  6
DASHED1
 62
    4
 10
243.80786632813232
 20
253.01854444678628
 11
245.40609202957054
 21
254.61677014822448
  0
LINE
  8
_0-8__Éí__û@
  6
PHANTOM1
 62
    4
 10
168.8728981690098
 20
125.07903836438808
 11
168.8728981690098
 21
87.040593859985663
  0
ENDSEC
  0
EOF
